Tom: F
		
Tabbed by:Rafa88offspring
Email: *
 
Tuning: Standard

Ahi va esta rolita de división minúscula del nuevo disco, esta bastante
chidilla, y pues me pidieron que si la sacaba y pues aqui estoy con el tab

cualquier cosa mandenme un mail...



Intro

la Guitarra 1 toca nada mas el acorde de Bb




Intro parte 2/Coro

la Guitarra 1 toca esta progresión de acordes

Bb Gm Am F

guitarra 2


e|----------13--------------|
B|--------------------------|
G|----10----------10----10--|
D|-12----12----12----12-----|
A|--------------------------|
E|--------------------------|





Verso

la Guitarra 1 toca esta progresión de acordes

Bb Gm Am F
 



"Cada vez que yo te digo que..."
Guitarra 1 (ahi cuentenle mas o menos cuantas veces se toca cada cosa)

e|------------------------------------------|
B|------------------------------------------|
G|-7-7-7-7-7-7-7-7-3-3-2-2-7-7-7-7-7-7-7-7--|
D|-7-7-7-7-7-7-7-7-3-3-2-2-7-7-7-7-7-7-7-7--|
A|-5-5-5-5-5-5-5-5-1-1-0-0-5-5-5-5-5-5-5-5--|
E|------------------------------------------|


Guitarra 2

e|---------------------------------------------------------------|
B|---------------------------------------------------------------|
G|-7---7---7---7-10--7----7----7------7---7---7---7--------------|
D|---8---8---8---------10---10---10-----8---8---8---8-888777777--|
A|---------------------------------------------------------------|
E|---------------------------------------------------------------|



e|----------------------------------|
B|----------------------------------|
G|-10-10-10-10-10-8-7---------------|
D|--------------------10-8-7-8-8-8--|
A|----------------------------------|
E|----------------------------------|




"Mi angel de la guarda..."

Guitarra 1 toca estos acordes

Gm F Bb Am Gm F D# y terminan con F

La guitarra 2 toca lo mismo que en el coro




"No Me Arrepiento"

Guitarra 1
toca estos acordes

F Gm D# Bb Am

y la ultima vez toca

F F#

Guitarra 2

e|----13-------------------13--------------------|
B|-------15----13-15-13-------15----13-15-13-15--|
G|----------15-------------------15--------------|
D|-12-------------------12-----------------------|
A|-----------------------------------------------|
E|-----------------------------------------------|



| /  slide up
| \  slide down
| h  hammer-on
| p  pull-off
| ~  vibrato
| +  harmonic
| x  Mute note
===============================================================================

Comentários 0

Composição: Calvin Russell / Dougal Drummond / Jay Graydon
Esse não é o compositor? Avise-nos.
Consegui tocarAinda não conseguiram tocar essa música. Seja o primeiro!
    Não consegui tocar
    Exibir acordes »
    publicidade
    fechar