Djavan

Lilás

448.236 exibições
Tom: C
Intro 4x: Am7(11)  F7M

Dedilhado Intro 4x:


   Am7(11)      F7M
E|-----3---3------0-------------------------|
B|-----3---3------1-----0h1-----------------|
G|-----5---5------2-----0h2-----------------|
D|-----5---5------2-------------------------|
A|-0-0---0---0------------------------------|
E|--------------1---1-1---------------------|

       ↓   ↓      ↓

Primeira Parte:

Am7(11)
        Amanhã, outro dia
G6(9)
      Lua sai, ventania
   F7M            F7M(11+)
Abraça uma nuvem que passa no ar
 Dm7             E7(9+)
Beija, brinca e deixa passar

Am7(11)
        E no ar de outro dia
G6(9)
      Meu olhar surgia
     F7M                F7M(11+)
Nas pontas de estrelas perdidas no mar
  Dm7                   F/G
Pra chover de emoção, trovejar

Dedilhado Primeira Parte:

Parte 1


   Am7(11)
E|---3-----x-3--3---------------------------|
B|---3-----x-3--3---------------------------|
G|---5-----x-5--5---------------------------|
D|---5-----x----5---------------------------|
A|-0---0-0-x-0----0-0-x-0-------------------|
E|--------------------x---------------------|

     ↓          ↓

Parte 2


   G6(9)
E|---0-----x----0---------------------------|
B|---0-----x-0--0---------------------------|
G|---2-----x-2--2---------------------------|
D|---2-----x-2--2---------------------------|
A|---------x----------x---------------------|
E|-3---3-3-x-3----3-3-x-0-------------------|

     ↓          ↓

Parte 3


   F7M       F7M(11+)
E|---0-----x----0---------------------------|
B|---1-----x-0--0---------------------------|
G|---2-----x-2--2---------------------------|
D|---2-----x-2--2---------------------------|
A|---------x----------x---------------------|
E|-1---1-1-x-1----1-1-x-1-------------------|

     ↓          ↓

Parte 4


   Dm7          E7(9+)
E|---1-----x------3-----x-------------------|
B|---1-----x------3-----x-------------------|
G|---2-----x------1-----x-------------------|
D|-0---0-0-x-0----2-----x-------------------|
A|----------------------x-------------------|
E|--------------0---0-0-x-0-----------------|

     ↓            ↓

Parte 4 (com variação)


   Dm7          F/G
E|---1-----x------------x-------------------|
B|---1-----x------1-----x-------------------|
G|---2-----x------2-----x-------------------|
D|-0---0-0-x-0----3-----x-------------------|
A|----------------------x-------------------|
E|--------------3---3-3-x-------------------|

     ↓            ↓

Pré-refrão:

         Am         G6(9)  F7M
Raio se libertou, clareou muito mais
 Am          G6(9)    F7M
Se encantou pela cor lilás
          Am
Prata na luz do amor
      A/B
Céu azul

Dedilhado Pré-refrão:

Parte 1 (2x)


   Am   G6(9)    F7M
E|----0-----0------0------x-----------------|
B|-1--1-----0------1------x-----------------|
G|-2--2-----2------2------x-----------------|
D|-2--2-----2------2------x-----------------|
A|-0----------------------x-----------------|
E|------3-3---3--1----0-0-x-----------------|

      ↓     ↓      ↓      

Parte 2


   Am          B/A
E|----0-----0-------------------------------|
B|-1--1-----1---2---------------------------|
G|-2--2-----2---2---------------------------|
D|-2--2-----2---2---------------------------|
A|-0----0-0---1-2---------------------------|
E|------------------------------------------|

      ↓     ↓    

Refrão:

                C7M       Em7
Eu quero ver o pôr do sol
           C7M    Em7
Lindo como ele só
                    F#7(13-)
E gente pra ver, e viajar
 Am7(9)        Em
No seu mar de raio

                C7M       Em7
Eu quero ver o pôr do sol
           C7M    Em7
Lindo como ele só
                    F#7(13-)
E gente pra ver, e viajar
 Am7(9)        Em
No seu mar de raio

Passagem Refrão:


   Em
E|-0----------------------------------------|
B|-0----------------------------------------|
G|-0----------------------------------------|
D|-2-0--------------------------------------|
A|-----2-0----------------------------------|
E|---------3-0------------------------------|

   ↓

Interlúdio 4x: C7M  F7M(11+))  Em

Parte 1


   C7M            F7M(11+)
E|-0-0--------0-x--0-0--------0-x-----------|
B|-0---3p0--3---x--0---3p0--3---x-----------|
G|-0---0----0---x--2---2----2---x-----------|
D|-----0--------x------2--------x-----------|
A|-3--------3---x---------------x-----------|
E|-----------------1--------1---x-----------|

       ↓               ↓

Parte 2


   Em
E|-0-0--------0-x--0-0--------0-x-----------|
B|-0---3p0--3---x--0---3p0--3---x-----------|
G|-0---0----0---x--0---0----2---x-----------|
D|-----2--------x------2--------x-----------|
A|--------------x---------------x-----------|
E|-0--------0---x--0--------1---x-----------|

       ↓               ↓
         
Primeira Parte:

Am7(11)
        Amanhã, outro dia
G6(9)
      Lua sai, ventania
   F7M            F7M(11+)
Abraça uma nuvem que passa no ar
 Dm7             E7(9+)
Beija, brinca e deixa passar

Am7(11)
        E no ar de outro dia
G6(9)
      Meu olhar surgia
     F7M                F7M(11+)
Nas pontas de estrelas perdidas no mar
  Dm7                   F/G
Pra chover de emoção, trovejar

Pré-refrão:

         Am         G6(9)  F7M
Raio se libertou, clareou muito mais
 Am          G6(9)    F7M
Se encantou pela cor lilás
          Am
Prata na luz do amor
      A/B
Céu azul

Refrão:

                C7M       Em7
Eu quero ver o pôr do sol
           C7M    Em7
Lindo como ele só
                    F#7(13-)
E gente pra ver, e viajar
 Am7(9)        Em
No seu mar de raio

                C7M       Em7
Eu quero ver o pôr do sol
           C7M    Em7
Lindo como ele só
                    F#7(13-)
E gente pra ver, e viajar
 Am7(9)        Em
No seu mar de raio

Interlúdio 4x: C7M  F7M(11+))  Em

Refrão:

                C7M       Em7
Eu quero ver o pôr do sol
           C7M    Em7
Lindo como ele só
                    F#7(13-)
E gente pra ver, e viajar
 Am7(9)        Em
No seu mar de raio

                C7M       Em7
Eu quero ver o pôr do sol
           C7M    Em7
Lindo como ele só
                    F#7(13-)
E gente pra ver, e viajar
 Am7(9)        Em
No seu mar de raio
    Composição: DjavanColaboração e revisão:
    • Gui_mpb
    • fabioh

    Comentários 3

    140 .
    • cassiabuzios cassiabuzios: Em 19/08/2015 23:59

      #PRECIOSIDADE#... Tô tomando uma surra...rs... Difícil, mas, LINDA!!

    • gui gui: Em 11/08/2015 08:29

      Outra roupagem

    • Caio Frusciante Caio Frusciante: Em 21/06/2012 23:59

      mais uma pro repertório =P

    140 cancelar

    conseguiu tocar?

    • cassiabuzios
    • Mateus
    • Jessica
    • Dener
    • eliel
    • anitsircsandy28
    • Sarinha
    • •••
    Málon Batista da Silva568 visualizações
      ver covers de outras músicas »
      0:00 / 0:00

      Capítulos

        1 versão de partiturasformatodownloadscontribuição
        play/pausefechar subir/descer velocidade
        6ª corda E5ª corda A4ª corda D3ª corda G2ª corda B1ª corda E
          acordes
          publicidad
          fechar
          ok