Dragon Ball GT Abertura

Dragon Ball GT

 Dragon Ball GT Compositor: não sei
Tom: F
		
C                   G           Am                Em           F
Seu sorriso é tão resplandecente, que deixou meu coração alegre
         Em Am       Dm           G           G#  A#  C (riff 2)
Me dê a mão , prá fugir desta terrivel escuridão

Fm                 Bb            Gm
Desde o dia em que eu te reencontrei,
              Cm7            Fm
Me lembrei daquele lindo lugar,
                G           Cm           D#
Que na minha infância era especial para mim
        G#             Bb              Gm
Quero saber se comigo você quer vir dançar,
             Cm            Fm
Se me der a mão eu te levarei,
          G              Cm7           D#
Por um caminho cheio de sombras e de luz.
      G#             Bb
Você pode até não perceber,
              Gm                  Cm
Mas o meu coração se amarrou em você,
            F         G#
Que precisa de alguém pra te mostrar
    A#                  G (riff 1)
O amor que o mundo te dá.

C               G            Am               Em          F
Meu alegre coração palpita, por um universo de esperança.
         Em Am      Dm      E G
Me dê a mão, a magia nos espera.
C                      G
Vou te amar por toda a minha vida,
Am              Em            F
Vem comigo por este caminho.
         Em Am     Dm                 G      G# A# C (riff 2)
Me dê a mão, prá fugir desta terrivel escuridão.
(Riff 1 -Riff 2)

Riff 1:
E|- |--3-3-----3-5-3-----------------------------------5-3------------------------|
B|- |------5-6-------6-5----5-5-----5-6-5----------------------3-5-6-5-3---5-6-3--|
G|- |---------------------7-----5-7--------7-5-4-2-2-5-------5-----------5--------| (x2)
D|- |-----------------------------------------------------------------------------|
A|- |-----------------------------------------------------------------------------|
E|- |-----------------------------------------------------------------------------|

Riff 2:
E|- |--------------------|----------------------|---------------------------------|
B|- |--------------------|--/9~--8--------------|--/11--9-------------------------|
G|- |-0----0---0---0---0-|---------10--8----8~--|----------11/12-10-8-10-10/12~---|
D|- |--------3---2---0---|---------------10-----|---------------------------------|
A|- |--------------------|----------------------|---------------------------------|
E|- |--------------------|----------------------|---------------------------------|

Comentários 39

  • Leo Leo: Postado em 09/12/2014 23:39

    cara lembra meu tempo de criança faz video aula por favor!!! no you tube tem um canal de um cara chamado cezar romero que ele ensina a tocar

  • Udson Udson: Postado em 17/11/2014 17:53

    *-* Minha infância !

  • Gustavo Gustavo: Postado em 14/10/2014 18:33

    Fácil e épica...

  • gabrielaugusto.i gabrielaugusto.i: Postado em 25/09/2014 13:31

    vms tds pedir uma video aula galera \o/

  • filipenii.chan filipenii.chan: Postado em 28/08/2014 21:29

    VIDEO AULA QUERO TOCAR TANTO ESSA MUSICA
    :(

  • Mateus Mateus: Postado em 10/02/2014 16:20

    Faz uma video aula

  • Lucas Lucas: Postado em 05/01/2014 14:54

    qual a base do solo?

    • alanzinhuh alanzinhuh: Postado em 19/11/2014 08:56

      Comentário removido

  • Vinicius Vinicius: Postado em 20/11/2013 20:55

    Faz uma video aula por favor !!

  • logan5000 logan5000: Postado em 17/11/2013 20:04

    Ela é muito boa de tocar, apesar dos acordes simples

Exibindo 10 de 39 comentários Mostrar mais ver todos »
Composição: Sabe quem é o compositor? Envie pra gente. Contribuição: Matt Correções: Jplauab , naosoudepensar e mais 10 »
Exibir acordes »
publicidade
fechar