Take Care

Drake

 Drake Compositor: Drake
Tom: A#
		
This is how the song is played.


    Am     G      F
E|-0--0---x--x---x--------|
B|-1--1---3--3---1--------|
G|-2--2---4--4---2--------|
D|-2--2---5--5---3--------|
A|-0--0---5--5---3--------|
E|-0--0---3--3---1--------|


Background guitar:


E|-11-11-11-11-6---------11-11-11-13-10-11--------------|
B|---------------11/9-----------------------------------|
G|------------------------------------------------------|
D|------------------------------------------------------|
A|------------------------------------------------------|
E|------------------------------------------------------|



E|-11-11-11-11-6-----------------------------------------|
B|---------------11/13-11-11-8-8-6-6-6/8-4---------------|
G|-------------------------------------------------------|
D|-------------------------------------------------------|
A|-------------------------------------------------------|
E|-------------------------------------------------------|


Bass, it joins later in the song escpecially at the part "dont tell me.."


G|-------------------------------------------------------------------------|
D|-------------------------------------------------------------------------|
A|-3-3-3-3-3-3-3-5-1-3-3-3-3-3-3-------3-3-3-3-3-3---0-1-1-1-1-2-3-3-3-3---|
E|-------------------------------4-4-5-------------4-----------------------|


[Rihanna]

  Am               G  F   Am  G     F
I Know you've been hurt by someone else
Am    G           F      Am G       F
I can tell by the way you carry yourself
Am     G   F                    Am G F
If you let me, here's what I'll do
                   Am G F  Am G F
I'll take care of you
                      A G F
I've loved and I've lost

GUITAR PART HERE

Am, G, F
[Drake: Verse 1]
I've asked about you and they've told me things
But my mind didn't change, I still the feel the same
What's a life with no fun? please don't be so ashamed
I've had mine, you've had yours, we both know
We know, **strumming fast here sounds good** they don't get you like I will
My only wish is I die real
Cause that truth hurts, and those lies heal
And you can't sleep thinking that he lies still
So you cry still, tears all in the pillow case
Big girls all get a little taste
Pushing me away so I give her space
Dealing with a heart that I didn't break
I'll be there for you, I will care for you
I keep thanking you, just don't know
Try to run from that, say you're done with that
On your face girl, it just don't show
When you're ready, just say you're ready
When all the baggage just ain't as heavy
And the parties over, just don't forget me
We'll change the pace and we'll just go slow
*stop strumming* Won't ever have to worry,
You won't ever have to hide
If you've seen all my mistakes
So look me in my eyes

Am, G, F
[Rihanna]
Cause if you let me, here's what I'll do
I'll take care of you
I've loved and I've lost

GUITAR PART HERE


Am, G, F
[Drake: Verse 2]
It's my birthday, I get high if I want to
Can't deny that I want you, but I lie if have to
Cause you don't say you love me
To your friend when they ask you
Even though we both know that you do (you do) *strumming here sounds good*
One time, been in love one time
You and all your girls in the club one time
All so convinced that you're following your heart
Cause your mind don't control what it does sometimes
We all have our nights though, don't be so ashamed
I've had mine, you've had yours, we both know
We know, *stop strumming* you hate being alone
You ain't the only one
You hate the fact that you bought the dream
And they sold you one
You love your friends but somebody shoulda told you somin' to save you
Instead they said…

Bass here:

(Dont tell me, I don't care, if you hurt)
(I don't tell you, you don't care)


  Cm             D Bb Cm         Ab  A Cm         Ab A Bb      B Cm


G|-------------------------------------------------------------------------|
D|-------------------------------------------------------------------------|
A|-3-3-3-3-3-3-3-5-1-3-3-3-3-3-3-------3-3-3-3-3-3---0-1-1-1-1-2-3-3-3-3---|
E|-------------------------------4-4-5-------------4-----------------------|



Am, G, F
[Rihanna]
Know you've been hurt by someone else
I can tell by the way you carry yourself
If you let me, here's what I'll do
I'll take care of you
I've loved and I've lost

GUITAR PART:


E|-11-11-11-11-6---------11-11-11-13-10-11--------------|
B|---------------11/9-----------------------------------|
G|------------------------------------------------------|
D|------------------------------------------------------|
A|------------------------------------------------------|
E|------------------------------------------------------|



E|-11-11-11-11-6-----------------------------------------|
B|---------------11/13-11-11-8-8-6-6-6/8-4---------------|
G|-------------------------------------------------------|
D|-------------------------------------------------------|
A|-------------------------------------------------------|
E|-------------------------------------------------------|
2.355 exibições

Comentários 1

  • anabeatriz.rodrigues.3551 anabeatriz.rodrigues.3551: Postado em 15/11/2013 10:57

    *O* Amo essa musica... As notas originais são Cm A#m G# >.< Fica muito TOP toca com essas também!

Exibir acordes »
publicidade
fechar