Arterial Black

Drist

 Drist
Tom: C
		
**This is my first tab**

Tabbed by: Kawasaki377
Email: *
Album: Orchids and Ammunition
Tuning: Drop D (DADGBE)


Guitar 1
Intro

E|-----------------------------------------------|
B|-----------------------------------------------|
G|-----------------------------------------------|
D|-0-0-00000000-7-7-77777777-3-3-33333333-8-8-7-7|  x2
A|-0-0-00000000-7-7-77777777-3-3-33333333-8-8-7-7|
D|-0-0-00000000-7-7-77777777-3-3-33333333-8-8-7-7|

       pppppppp     pppppppp     pppppppp

Guitar 2 (over intro second time)

E|--------------------------------------|
B|---13b~------12b~-----11b~----/11~-10~|
G|--------------------------------------|
D|--------------------------------------|
A|--------------------------------------|
D|--------------------------------------|


Guitar 1
Verse

E|--------------------------------------|
B|--------------------------------------|
G|--------------------------------------|
D|-0-0---0-0-7-7---7-7-3-3---3-3-8-8-7-7|  x4
A|-0-0---0-0-7-7---7-7-3-3---3-3-8-8-7-7|
D|-0-0---0-0-7-7---7-7-3-3---3-3-8-8-7-7|



Guitar 1
Chorus

E|---------------------|
B|---------------------|
G|---------------------|
D|---8-7-3-0---8-7-3-0-| x2
A|---8-7-3-0---8-7-3-0-|
D|---8-7-3-0---8-7-3-0-|



Guitar 1
Verse

E|--------------------------------------|
B|--------------------------------------|
G|--------------------------------------|
D|-0-0---0-0-7-7---7-7-3-3---3-3-8-8-7-7|  x2
A|-0-0---0-0-7-7---7-7-3-3---3-3-8-8-7-7|
D|-0-0---0-0-7-7---7-7-3-3---3-3-8-8-7-7|



Guitar 2 (over verse second time)

E|--------------------------------------|
B|---13b~------12b~-----11b~----/11~-10~|
G|--------------------------------------|
D|--------------------------------------|
A|--------------------------------------|
D|--------------------------------------|


Guitar 1
Verse

E|--------------------------------------|
B|--------------------------------------|
G|--------------------------------------|
D|-0-0---0-0-7-7---7-7-3-3---3-3-8-8-7-7|  x4
A|-0-0---0-0-7-7---7-7-3-3---3-3-8-8-7-7|
D|-0-0---0-0-7-7---7-7-3-3---3-3-8-8-7-7|



Guitar 1
Chorus

E|--------------------|
B|--------------------|
G|--------------------|
D|---8-7-3-0--8-7-3-0-| x4
A|---8-7-3-0--8-7-3-0-|
D|---8-7-3-0--8-7-3-0-|




(I cant figure the solo out. Behind solo play verse)


Guitar 1
Chorus

E|----------------------|
B|----------------------|
G|----------------------|
D|---8-7-3-0--8-7-3-0-0-| x4
A|---8-7-3-0--8-7-3-0-0-|
D|---8-7-3-0--8-7-3-0-0-|




Guitar 1
Outtro

E|-------------------------|
B|-------------------------|
G|-------------------------|
D|---8-7-3-8-7-3-88-77-3-0-|
A|---8-7-3-8-7-3-88-77-3-0-|
D|---8-7-3-8-7-3-88-77-3-0-|



| p  palm mute
| b  bend
| /  slide up
| ~  vibrato
===============================================================================

Comentários 0

Exibir acordes »
publicidade
fechar