Tom: C
		
  afinação: (C G C F A D )

(intro)


C|1-1------------------------------------4-4---------------------------------6-6-------
G|1-1------------------------------------4-4---------------------------------6-6-------
C|1-1-----------8-8-8-6-6-6-9-9-9-6------4-4-----9-9-9-8-8-8-11-11-11-9------6-6-------
F|-------------------------------------------------------------------------------------
A|-------------------------------------------------------------------------------------
D|-------------------------------------------------------------------------------------



C|-------------------------------4--4--4---1-1
G|-------------------------------4--4--4---1-1
C|10-10-10-9-9-9-12-12-12-10-----4--4--4---1-1
F|--------------------------------------------
A|--------------------------------------------
D|--------------------------------------------



essa parte tem q tokar no ritimo da musik)
(Refrão)


C|1-----------------6---------9------11---
G|1--------4--------6---------9------11---
C|1--------4--------6---------9------11---
F|----------------------------------------
A|----------------------------------------
D|----------------------------------------



Variação
(essa parte vc tok com outra distorção o som bem de fundoh)


(repete ate a hora q começa o refrão)

C|1-1--6-4-6---1-1----6-4--
G|-------------------------
C|-------------------------
F|-------------------------
A|-------------------------
D|-------------------------
1.213 exibições

Comentários 0

Composição: Ná Ozzetti / Scott Rosser
Esse não é o compositor? Avise-nos.
Contribuição: PhiL.
Consegui tocarAinda não conseguiram tocar essa música. Seja o primeiro!
    Não consegui tocar
    Exibir acordes »
    publicidade
    fechar