Lego House

Ed Sheeran

 Ed Sheeran
Tom: F#
		
Intro e verso:


E|-------------------------------------------------------------------|
B|-------------------------------------------------------------------|
G|---4---4---4---4---4---4---4---4---4---4---4---4---4---4---3---3---|
D|---4---4---4---4---4---4---4---4---4---4---4---4---4---4---4---4---|
A|-2---2---2---2---2---2-------------------------------------------2-|
E|-------------------------2---2---4---4---4---4---4---4---0---0-----|


B                  F#    Abm
I'm gonna pick up the pieces,
      E             B
And build a lego house
                 F#            Abm          E
When things go wrong we can knock it down

B                    F#    Abm
My three words have two meanings,
                  E       B
There's one thing on my mind
         F# Abm     E
It's all for you

B                                                     F#       Abm   E
And it's dark in a cold december, but i've got ya to keep me warm
    B                                            F#           Abm
And if you're broke i'll mend ya and keep you sheltered from the storm
                E
That's raging on

Refrão:


E|------------------------------------------------------------------|
B|------------------------------------------------------------------|
G|---4---4---4---4---4---4---4---4---4---4---4---4---4---4---4---4--|
D|---4---4---4---4---4---4---4---4---4---4---4---4---4---4---4---4--|
A|-2---2---2---2---2---2----4---4---------------------------2---2---|
E|---------------------------------4---4---4---4---4---4------------|



E|----------------------------------------------------------------|
B|----------------------------------------------------------------|
G|--3---3---3---3---3---3---4---4---4---4---4---4---4---4---4---4-|
D|--4---4---4---4---4---4---4---4---4---4---4---4---4---4---4---4-|
A|----------------------------------------------------------------|
E|-2---2---2---2---2---2---4---4---0---0---0---0---0---0---2---2--|


B                     F#          Abm
I'm out of touch, i'm out of love
                              B        F#
I'll pick you up when you're getting down
                  Abm              E                       F#      B
And of all these things i've done i think i love you better now

B                     F#          Abm
I'm out of sight, i'm out of mind
                    B        F#
I'll do it all for you in time
                  Abm          E                       F#      B
And of all these things i've done i think i love you better now

(Intro)

Verso:

B                  F#      Abm
I'm gonna paint you by numbers
    E           B
And colour you in
                 F#               Abm                     E
If things go right we can frame it, and put you on a wall

B                  F#             Abm
And it's so hard to say it but i've been here before
     E               B
And i'll surrender up my heart
       F# Abm     E
And swap it for yours

Refrão:

B                     C#          Abm
I'm out of touch, i'm out of love
                              B        F#
I'll pick you up when you're getting down
                  Abm              E                       F#      B
And of all these things i've done i think i love you better now

B                     C#          Abm
I'm out of sight, i'm out of mind
                    B        F#
I'll do it all for you in time
                  Abm          E                       F#      B
And of all these things i've done i think i love you better now

Ponte:


E|----------------------------------------------------------------|
B|----------------------------------------------------------------|
G|--4---4---4---4---4---4---4---4---4---4---4---4---4---4---4---4-|
D|--4---4---4---4---4---4---4---4---4---4---4---4---4---4---4---4-|
A|----------------------------------------------------------------|
E|-4---4---4---4---2---2---2---2---0---0---0---0---0---0---0---0--|



E|----------------------------------------------------------------|
B|----------------------------------------------------------------|
G|--4---4---4---4---4---4---4---4---4---4---4---4---4---4---4---4-|
D|--4---4---4---4---4---4---4---4---4---4---4---4---4---4---4---4-|
A|----------------------------------------------------------------|
E|-2---2---2---2---2---2---2---2---0---0---0---0---2---2---2---2--|


Abm     F#       E
Don't hold me down
             F#                          E                F#
I think my braces are breaking and it's more than i can take

Verso:

B                                                     F#       Abm   E
And it's dark in a cold december, but i've got ya to keep me warm
    B                                            F#           Abm
And if you're broke i'll mend ya and keep you sheltered from the storm
                E
That's raging on

Refrão:

B                     C#          Abm
I'm out of touch, i'm out of love
                              B        F#
I'll pick you up when you're getting down
                  Abm              E                       F#      B
And of all these things i've done i think i love you better now

B                     C#          Abm
I'm out of sight, i'm out of mind
                    B        F#
I'll do it all for you in time
                  Abm          E                       F#      B
And of all these things i've done i think i love you better now
104.245 exibições

Comentários 12

  • lucascostama lucascostama: Postado em 16/02/2015 12:35

    dedilhei a musica toda como no video

    watch?v=ZlGPTwNRYtU

  • lidilidinha lidilidinha: Postado em 21/08/2014 15:38

    VIDEO AULAAAAAAAAAAAAAAAAAAAAAAAAAAAAAAAA POR FAVOOOOOOOR

  • Matheus Matheus: Postado em 10/06/2014 09:43

    Man acho que no lugar de C# é Cm

  • jullio.santana.5 jullio.santana.5: Postado em 10/03/2014 17:56

    Qual o tom Original da musica ???

  • bon_jovi bon_jovi: Postado em 22/12/2013 00:27

    RUPERTTT!!!!!!

  • johnnydantas johnnydantas: Postado em 10/08/2013 21:14

    /watch?v=RM-FWbx1LkU
    Pessoal esse vídeo explica direitinho a versão original, eu ia fazer a tab, porém, preguiça :)
    espero que ajuda '--'

  • diih97 diih97: Postado em 10/10/2012 17:59

    alguém me pode dizer o ritmo da musica?
    é taaooo lindaa *.*

  • natcalchi natcalchi: Postado em 27/06/2012 14:40

    Video aula por favor!!! Eu ainda não sei ler dedilhado :/

  • natcalchi natcalchi: Postado em 27/06/2012 14:38

    Video aula por favor!! Eu ainda não sei ler dedilhado :/

  • nichols. nichols.: Postado em 24/10/2011 23:20

    Lembrando a todos que, para tocá-la colocar capo~ na 4° casa e sem o capo utilizar a tab~

Exibindo 10 de 12 comentários Mostrar mais ver todos »
Composição: Sabe quem é o compositor? Envie pra gente. Contribuição: nichols. Correções: Mega_X e mais 2 »
Exibir acordes »
publicidade
fechar