Do Mundo Nada Se Leva

Edson e Hudson

 Edson e Hudson
Tom: D
		

Intro: G D7 G D7 G D7 G D7 G D7 G
E|-----------------10/12-12-12-10-10-10-8--8--8--7-7-7--10-10-10--8--8--8---7-7-7-|
B|-----------------12/13-13-13-12-12-12-10-10-10-8-8-8--12-12-12-10--10-10--8-8-8-|
G|--------------------------------------------------------------------------------|
D|-------5------------------------------------------------------------------------|
A|-5-7-8---7-8-9------------------------------------------------------------------|
E|--------------------------------------------------------------------------------|



E|---9----8----7---5--3-|
B|--------------------3-|
G|-11---9----7---5----4-|
D|----------------------|
A|----------------------|
E|----------------------|


               D7
Quando estou viajando
                   G
Cruzando campos e serras
                 D7
Meu coração se alegra
                    G
Se passo por minha terra
                   D7
O rincão é mais florido
                   G
A natureza é mais bela

G                  D7
Gosto de minha querência
                      G
Por ser risonha e florida
                D7
Onde vivi em criança
                    G
A minha infância querida
                    D7
Não sai de minha lembrança
               G
Aquela gente amiga

 A                 D
Vamos sorrir e cantar
            A         D
Quem está triste se alegrar
C               G
A nossa vida é curta
          D7        G
Do mundo nada se leva
C               G
A nossa vida é curta
          D7        G
Do mundo nada se leva

G                    D7
Vida triste ou vida alegre
                 G
A vida do cancioneiro
                       D7
Sorrindo às vezes com mágoa
                   G
Cantando com desespero
                 D7
Bebendo de todas águas
                    G
Do nosso chão brasileiro

G                       D7
Sendo triste ou sendo alegre
                G
Eu adoro minha lida
                  D7
Cantando que conheci
                  G
A minha prenda querida
    D7
Viverás sempre comigo
   G
O resto de minha vida

A                  D
Vamos sorrir e cantar
            A         D
Quem está triste se alegrar
C               G
A nossa vida é curta
         D7         G
Do mundo nada se leva
C               G
A nossa vida é curta
         D7         G D7 G D7 G
Do mundo nada se leva
39.738 exibições

Comentários 0

Composição: Belmont - Jorge Paulo
Esse não é o compositor? Avise-nos.
Contribuição: rickybigeli Correções: luisinho »
Exibir acordes »
publicidade
fechar