Te quero pra mim

Edson e Hudson

 Edson e Hudson
Tom: D#
		
(riff 1)

E|------------------------|-----------------------
B|----6--8---6-/----------|--6-8--6-------6-8-8/9-
G|-----------------8--8--:|----------8--8---------
D|------------------------|-----------------------
A|------------------------|-----------------------
E|------------------------|-----------------------


(riff 2)

E|------------------------|-----------------------
B|----6--8---6-/----------|--6-8-6----------------
G|-----------------8--8--:|--------8-8------------
D|------------------------|------------3/5-3-----
A|------------------------|-----------------------
E|------------------------|-----------------------


D#             Cm          D#    G# A#
Chego em casa já é de manhã
     D#          Cm        A#
Depois de uma noite de amor
D#       G#
Do pensamento não sai
Cm               G#
Se eu pudesse voltar atrás
Gm                 A#
Pra sentir o seu calor

(refrão)
            D#
Pra te abraçar
          Cm
Pra te beijar
        G#          A#    D#
Pra saciar essa louca paixão
     Cm       G#
Te quero pra mim
    A#            D#
Viajar no seu prazer
            Cm
No seu mar azul
        G#                  A#     D#
Então acender ainda mais esse tesão
         Cm       G#
Eu nem quero dormir
        A#   (riff 2)    D#     Cm G# A#
Eu te quero pra mim
D#           Cm           D#     G# A#
Na minha camisa o seu batom     D#       Cm             A#
O cheiro do suor do nosso amor
D#             G#
Mas o que eu vou fazer
Cm         G#
Pra esquecer você
Gm                      A#
Sei que não vou mais te ter

(refrão)
            D#
Pra te abraçar
          Cm
Pra te beijar
        G#          A#    D#
Pra saciar essa louca paixão
     Cm       G#
Te quero pra mim
    A#            D#
Viajar no seu prazer
            Cm
No seu mar azul
        G#                  A#     D#
Então acender ainda mais esse tesão
         Cm       G#
Eu nem quero dormir
        A#   D#     Cm G# A# (riff 1)
Eu te quero pra mim

            D#
Pra te abraçar
          Cm
Pra te beijar
        G#          A#    D#
Pra saciar essa louca paixão
     Cm       G#
Te quero pra mim
    A#            D#
Viajar no seu prazer
            Cm
No seu mar azul
        G#                  A#     D#
Então acender ainda mais esse tesão
         Cm       G#
Eu nem quero dormir
        A#     D#     Cm G# A#
Eu te quero pra mim

(riff 1) (somente a metade dele)

Comentários 0

Composição: Sabe quem é o compositor? Envie pra gente. Contribuição: famusic Correções: felipe »
Exibir acordes »
publicidade
fechar