Traumas

Edson Gomes

 Edson Gomes
Tom: C
		
Intro: C  Am  Em  F  G

    C                     Am                   F
O amor foi a pedra que faltou no alicerce da nação
      C                    Am                       F
Esse amor és a pedra que sobrou nessa nossa construção
C                             Am
   E o amor que os cantores cantam
     F         G
Não junta a família
     Am        F         G           Am
Não soma, não junta a família uo uo uo
          F                 G
Filhos e filhas contraindo traumas
Am               F
   Sexo e drogas,  fama e dinheiro
         G
Assunto principal
Am               F
   Sexo e drogas,  fama e dinheiro
         G
Notícias do jornal
C                  F
 Juventude toda perdida
Am                      G
   Uma juventude mal dirigida
C                           F
  E mesmo protegido pela polícia
Am                            G
Nós não estamos livres da violência
C                     F
 A juventude toda perdida
Am                        G
  Uma juventude mal concebida
C                         F
 Mesmo protegidos pela polícia
Am                            G
Nós não estamos livres da violência
         Am         F          G
Que não soma, nem junta uma família

    Am        F         G           Am
Não soma, não junta a família uo uo uo
          F                 G
Filhos e filhas contraindo traumas

Solo: C  Am  Em  F  G

C                  F
 Juventude toda perdida
Am                      G
   Uma juventude mal dirigida
C                           F
  E mesmo protegido pela polícia
Am                            G
Nós não estamos livres da violência
         Am         F          G
Que não soma, nem junta uma família

Solo: C  Am  Em  F  G

(Riff final)

(Parte 1)

E|----------------------|
B|----------------------|
G|-----5-7-9-7--7-5-7---|
D|-5-7----------------7-|
A|----------------------|
E|----------------------|


(Parte 2)

E|----------------------|
B|----------------------|
G|-----5-7-9-7--7-5-7---|
D|-5-7------------------|
A|----------------------|
E|----------------------|


(Parte 3)

E|----------------------|
B|-8-6------------------|
G|-----9-7-9-7--7-5-7---|
D|--------------------7-|
A|----------------------|
E|----------------------|


(Parte 4)

E|----------------------|
B|----------------------|
G|-----5-7-9-7----------|
D|-5-7------------------|
A|----------------------|
E|----------------------|
5.943 exibições

Comentários 0

Exibir acordes »
publicidade
fechar