Onda Passageira

Edu e Renan

 Edu e Renan
Tom: G
		
G                 Em                 C                       D
Como uma onda que passou você foi, pra mim
G                 Em                 C                       D
Uma canção completa, com início, meio e fim,
Em              C                     G              D
Não quero mais essa saudade, que tenho de você,
Em              C                     G              D
Quero virar a página, e tentar te esquecer,
                 G   D                     Em          C
Sinto que dói, a falta de não ter você aqui,
             G                D            Em          C
Quero tentar te esquecer, eu quero ser feliz,
                   G                 D             Em               C
E por mais que passe o tempo, as coisas vão mudar,
Em                                C                    Em
Mas eu guardo essa saudade, essa lembrança, no fundo do olhar,

G                 Em                 C                       D
Você não deu valor, a todo o tempo em que eu estive aqui,
G                 Em                 C                       D
Muita coisa passou, e agora canto pra você ouvir,

                 G   D                     Em          C
Sinto que dói, a falta de não ter você aqui,
             G                D            Em          C
Quero tentar te esquecer, eu quero ser feliz,
                   G                 D             Em               C
E por mais que passe o tempo, as coisas vão mudar,
Em                                C                    Em
Mas eu guardo essa saudade, essa lembrança, no fundo do olhar,


E |-----------------------------9-9-9-11-11-11-11-11-9-9-9-11-11-11-11-11-9-9-9-8-8-8-8-8|
B |-------------------------------------------------------------------------------------------------------|
G |---------6--8---6------------------------------------------------------------------------------------|
D |--6--9--------------9--------------------------------------------------------------------------------|
A |-------------------------------------------------------------------------------------------------------|
E |-------------------------------------------------------------------------------------------------------|



E |------------------------------|
B |------------------------------|
G |---------6--8----------------|
D |--6--9-----------------------|
A |------------------------------|
E |------------------------------|


G                 Em                 C                       D
Você não deu valor, a todo o tempo em que eu estive aqui,

G       Em             C                       D
Muita coisa passou, e agora canto pra você ouvir,

                 G   D         Em          C
Sinto que dói, a falta de não ter você aqui,
            G        D            Em          C
Quero tentar te esquecer, eu quero ser feliz,
    G      D             Em               C
E por mais que passe o tempo, as coisas vão mudar,
Em                                C                    Em
Mas eu guardo essa saudade, essa lembrança, no fundo do olhar,
527 exibições

Comentários 0

Composição: Eduardo Valim
Esse não é o compositor? Avise-nos.
Contribuição: Fredi_Bazzan
Consegui tocarAinda não conseguiram tocar essa música. Seja o primeiro!
    Não consegui tocar
    Exibir acordes »
    publicidade
    fechar