Eduardo Costa

Enamorado

150.625 exibições
Tom: D
Intro:  D  A  Bm  G

Solo intro:

(Violão 1)


E|-----------|---------------|-------------5-5-5-3-3p2-2--7-5-3-3-|
B|-2h3-2h3---|---------------|-----3---5/7------------------------|
G|---------2-|-----2---2h4-2-|-2h4---4----------------------------|
D|-----------|-2h4---4-------|------------------------------------|
A|-----------|---------------|------------------------------------|
E|-----------|---------------|------------------------------------|


(Violão 2)


E|-----------|---------------|------------------------------------|
B|-----------|---------------|-------------7-7-7----------8-7-----|
G|-----------|---------------|-------------------9-9p7-7------9-7-|
D|-----------|---------------|------------------------------------|
A|-----------|---------------|------------------------------------|
E|-----------|---------------|------------------------------------|


       Bm         G
Já não sei, se é amor
        D             A
O que eu sinto no meu coração
       Bm          G
Eu só sei que esse amor
     D                  A
Me envolve eu não sei dizer não

        Bm
Se eu te olho pinta um desejo
   G
No gosto doce do seu beijo
      D                        A
Minha calma quando você vem me tocar

      Bm
Chega perto minha cabeça gira
    G
Sua voz é uma poesia
   D                        A
Um beijo pra fazer o meu mundo parar
     Em D/F# G
E te ama...r

Refrão:
      D               A
Yo estoy enamorado por ti
     Bm             G
E não sei como explicar
      D
Este amor que viene de dientro
A
Involucra mis sentimientos
       Bm  A    G
Eu só sei, te amar

Solo:

Base Solo: Bm  G  D  A  Bm  G  D  A   G A G

(Violão 1)


E|---7----7-9-10-9-7----7----|-7-9-7----7----7--------------7--------|
B|--7--10------------10---10-|-------10---10---10-9-8--10-8---10-9-8-|
G|-7-------------------------|---------------------------------------|
D|---------------------------|---------------------------------------|
A|---------------------------|---------------------------------------|
E|---------------------------|---------------------------------------|


(Violão 2)


E|---------------------------|---------------------------------------|
B|---------------------------|-8-10-8--7-8-7-8--9-8-7--9-7--8--9-8-7-|
G|---------------------------|---------------------------------------|
D|---------------------------|---------------------------------------|
A|---------------------------|---------------------------------------|
E|---------------------------|---------------------------------------|


(Violão 1)


E|-------------------------------------------------------|
B|-10/12\10--10-8-7-8-7h8p7------------------------------|
G|-------------------------9-7-9-7-6--6h7p6--------------|
D|-----------------------------------------9--7-9--7-----|
A|---------------------------------------------------9---|
E|-------------------------------------------------------|


(Violão 2)


E|-------------------------------------------------------|
B|-----------7-------------------------------------------|
G|-------------9-7-9-7h9p7p6---6-------------------------|
D|-7/9\7---------------------9---9-7--7h9p7--------------|
A|-----------------------------------------10-9-10-9-7---|
E|-------------------------------------------------------|


(Violão 1)


E|------------------------------------------------------------------|
B|-----------------7-8-7h8p7--------8-7h8p7--------8-7h8p7----------|
G|-----------6-7-9----------9-7---7--------9-7---7--------9-7---7---|
D|-----6-7-9--------------------9--------------9--------------9-----|
A|-7-9--------------------------------------------------------------|
E|------------------------------------------------------------------|


(Violão 2)


E|-------------------------------------------------7-5h7p5----------|
B|--------------------------------------------------------8-7-5-7---|
G|------------------------------------------------------------------|
D|---------------------4h5p4--------5-4h5p4-------------------------|
A|--------------------------7-5---5--------7-5---5------------------|
E|------------------------------7--------------7--------------------|


(Violão 1)


E|----------------------------------------------------------------------------|
B|-7h8p7--------8-7h8p7----------7-8-10/12-12/15-15\14-14\12-12\10-10\9-8\7-7-|
G|------9-7---7--------9-7---7-9----------------------------------------------|
D|----------9--------------9--------------------------------------------------|
A|----------------------------------------------------------------------------|
E|----------------------------------------------------------------------------|


(Violão 2)


E|-7-5h7p5--------7-5h7p5-----------------------------------------------------|
B|--------8-7-5-7--------8-7-5-7----------------------------------------------|
G|----------------------------------------------------------------------------|
D|---------------------------------4-5-7/9-9/12--12\11--11\9--9\7--7\5--5\4-4-|
A|-------------------------------7--------------------------------------------|
E|----------------------------------------------------------------------------|


(Violão 1)


E|-----------------------------------------9---10-9-7--10-9-7--10-9-7--10-|
B|-12-10-8-12-10-8-12-10-8-12-10-8-12-10-8--------------------------------|
G|------------------------------------------------------------------------|
D|------------------------------------------------------------------------|
A|------------------------------------------------------------------------|
E|------------------------------------------------------------------------|


(Violão 2)


E|------------------------------------------------------------------------|
B|-----------------------------------------10--12-10-8-12-10-8-12-10-8-12-|
G|-12-11-9-12-11-9-12-11-9-12-11-9-12-11-9--------------------------------|
D|------------------------------------------------------------------------|
A|------------------------------------------------------------------------|
E|------------------------------------------------------------------------|


       Bm         G
Já não sei, se é amor
        D             A
O que eu sinto no meu coração
       Bm          G
Eu só sei que esse amor
     D                  A
Me envolve eu não sei dizer não

        Bm
Se eu te olho pinta um desejo
   G
No gosto doce do seu beijo
      D                        A
Minha calma quando você vem me tocar

      Bm
Chega perto minha cabeça gira
    G
Sua voz é uma poesia
   D                        A
Um beijo pra fazer o meu mundo parar
     Em D/F# G
E te ama...r

Refrão:
      D               A
Yo estoy enamorado por ti
     Bm             G
E não sei como explicar
      D
Este amor que viene de dientro
A
Involucra mis sentimientos
       Bm  A    G
Eu só sei, te amar

Solo final:

Base: Bm  G  D  A

(Violão 1)


E|-----------|-------------|---------5-3-2h3p2---|--2h3-2---------|
B|-2h3-2h3---|-3-5-3h5p5---|-3-5-5/7-----------5-|--------4-------|
G|---------4-|-----------4-|---------------------|----------------|
D|-----------|-------------|---------------------|----------------|
A|-----------|-------------|---------------------|----------------|
E|-----------|-------------|---------------------|----------------|


(Violão 2)


E|-----------|-------------|---------------------|----------------|
B|-----------|-------------|---------7-5-3h5p3-2-|--4h5-4-2-------|
G|-----------|-------------|-4-6-6/7-------------|----------------|
D|-----------|-------------|---------------------|----------------|
A|-----------|-------------|---------------------|----------------|
E|-----------|-------------|---------------------|----------------|


    Bm
Te amar
    Composição: Adair CardosoColaboração e revisão:
    • dener.simoes.54
    • KAMILA
    • Renan
    • ednan_cetra
    • +2

    Comentários 17

    • gilbertotdutra gilbertotdutra: Postado em 30/04/2015 20:35

      Na moral, até dói ver esse pessoal maltratando o português, "Minha calma"...
      O CERTO ("Me acalma" quando você vem me tocar)...

    • Ana Clara Ana Clara: Postado em 19/04/2015 14:59

      como é o ritmo?

    • Rodrigo Rodrigo: Postado em 12/09/2014 11:01

      á musica e fácil de tocar, só o que quebra é o solo

    • dener.simoes.54 dener.simoes.54: Postado em 26/05/2014 22:01

      Aí galera!! Enviei todos os solos, inclusive do violão 2 que faz os duetos... se aprovarem... ficarei feliz em ter ajudado em algo.

    • Renan Renan: Postado em 21/01/2014 22:02

      Enviei o solo, mais acho que não vão aprovar, eu inverti as cordas G e D... Vacilo!

      • Victor Victor: Postado em 31/01/2014 12:13

        Qual o ritmo da música?

      • maria.bolis.9 maria.bolis.9: Postado em 05/02/2014 21:39

        Comentário removido

      • Gabriel Gabriel: Postado em 08/02/2014 23:16

        ouve a porra da musica boçal

      • Nathalia Nathalia: Postado em 31/03/2014 21:31

        Comentário removido

      • Nathalia Nathalia: Postado em 31/03/2014 21:32

        baixo cima cima baixo baixo cima troca de acorde
        refrão : é a mesma coisa só que mais rapido

    Exibindo 10 de 17 comentários Mostrar mais ver todos »

    conseguiu tocar?

    • Pedro
    • gilbertotdutra
    • paulo cesar
    • gustavo
    • Carolina
    • gustavo.vieira.1042
    • dener.simoes.54
    • •••

    covers

    Grave um vídeo tocando Enamorado e mande pra gente!

    Ex.: http://www.youtube.com/watch?v=0IvSvIwGdwk
    ver covers de outras músicas »
    0:00 / 0:00

    Capítulos

      1 versão de violãodificuldadeexibiçõescontribuição e correção
      1 versão de guitarradificuldadeexibiçõescontribuição e correção
      1 versão de cavacodificuldadeexibiçõescontribuição e correção
      1 versão de tecladodificuldadeexibiçõescontribuição e correção
      1 versão de Guitar Proformatodownloadscontribuição
      play/pausefechar subir/descer velocidade
      6ª corda E5ª corda A4ª corda D3ª corda G2ª corda B1ª corda E
        acordes
        publicidad
        fechar
        ok