Espírito Santo

Eli Soares

 Eli Soares
Tom: D
		
Intro: F6  A7M  F6  A7M



E|------------5/7--5--------------------------|
B|------------5/7--5--------------------------|
G|--------------------------------------------|
D|--------------------------------------------|
A|--------------------------------------------|
E|--------------------------------------------|


Riff 1:


E|--------------------------------------------|
B|--------------------------------------------|
G|------------7-5-----------5/6---------------|
D|-------------------7--5---------------------|
A|--------------------------------------------|
E|--------------------------------------------|



Bm11             D9/E
Espírito Santo quero ouvir
                        A7M
a sua voz e sentir seu tocar
          Bm11               D9/E
Espírito Santo te dou minha vida
                         A7M
como oferta viva em seu altar
D/F#              A4/F                 A7M
me ensina a andar segundo os seus conselhos,
 D/F#          A4/F            A7M
me ensina a te amar acima de tudo
               C#m7            D
Não quero só te amar pelo que fez
                Bm11          D9/E
Mais quero te adorar pelo que és
                 C#m7     F#m5+
Eu quero sempre ouvir tua voz
                Bm11            D9/E     A7M
E conduzir meus passos rumo ao seu encontro .

(F6  A7M  F6  A7M D9)
15.001 exibições

Comentários 1

  • Adrihel Adrihel: Postado em 09/01/2014 21:37

    Linda canção...

Composição: Sabe quem é o compositor? Envie pra gente. Contribuição: gutohvr Correções: Luiz e mais 2 »
Exibir acordes »
publicidade
fechar