Enviai

Eliana Ribeiro

 Eliana Ribeiro Compositor: Fábio Roniel
Tom: E
		
Intro:
E|-------|    |-------|    E|-------|    |-------|
B|---5---|    |---4---|    B|---5---|    |---4---|

G|---4---|(6x)|---4---|(1x)G|---x---|(6x)|---x---|(1x)

D|---2---|    |---2---|    D|---2---|    |---2---|
A|-------|    |-------|    A|-------|    |-------|
E|-------|    |-------|    E|-------|    |-------|

E         B           C#m           A
Vem espírito de amor, reacender a chama que se apagou
E        B         C#m               A
Reinflamar os corações com línguas de fogo

Riff:

E|---------------------------------------------------------|
B|--5/12--12b14-9--9b10r9-7--5/12--12b14-9-12-12b14r12b14--|
G|---------------------------------------------------------|
D|---------------------------------------------------------|
A|---------------------------------------------------------|
E|---------------------------------------------------------|


E         B            C#m              A
Vem espírito de amor, recriar o que o mundo destruiu
E     B             C#m      A
Reavivar em nós o primeiro amor
F#m         E/G#        A
Como em pentecostes vem viver em nós
F#m          E/G#       A            A/B
Nos unindo à criação. À Deus clamaremos

Solo:

E|----------------------------------------------------------------|
B|----------------------------------------------------------------|
G|-----9-8------9-8----------------------9-8------9-8-------------|
D|---9-----9--9-----9--------9h11-11---9-----9--9-----9-----------|
A|----------------------9-11-----------------------------9/16-----|
E|----------------------------------------------------------------|


E    B             C#m        A
Enviai teu santo espírito, Senhor
  E   B            A
e renovai a face da Terra.

Comentários 0

Composição: Diego Contiero
Esse não é o compositor? Avise-nos.
Contribuição: gabsvaas Correções: ednaldo , GuilhermeAurino e mais 2 »
Exibir acordes »
publicidade
fechar