Hound dog

Elvis Presley

 Elvis Presley
Tom: C
		
(riff 1) C



E|--------------------|-----------------|-----|
B|--------------------|-----------------|-----|
G|-------------------|---------------|-----|
D|-------5-----------|--------------|-----|
A|-3-5s7----------------|-----------------|-----|
E|-------------------|-----------------|-----



 C
You ain´t nothin´ but a hound dog
C
cryin´ all the time.
F
You ain´t nothin´ but a hound dog
C
cryin´ all the time.
G7
Well, you ain´t never caught a rabbit
F                           C
and you ain´t no friend of mine.

When they said you was high classed,
well, that was just a lie.
When they said you was high classed,
well, that was just a lie.
You ain´t never caught a rabbit
and you ain´t no friend of mine.

(solo)

E|-----------------------------------|-----------------------------------|--|
B|-----------------------------------|-----------------------------------|--|
G|-----------------------------------|-----------------------------------|--|
D|-----------1--3--1-----------------|-----------1--3--1-----------------|--|
A|-----1--3-----------3--1-----1--3--|-----1--3-----------3--1-----1--3--|--|
E|--3-----------------------3--------|--3-----------------------3--------|--|



E|----------------------------------8--11b13--8--------------------|
B|---------------------------8--10---------------------------------|
G|-------------------5--8/9----------------------------------------|
D|-------------5--7------------------------------------------------|
A|-------5--7------------------------------------------------------|
E|--7/8------------------------------------------------------------|



E|-------------------------------------------------------8--|------|
B|--11--10--8------8------------------------------8--10-----|------|
G|-------------11-----11p10--8-------------8--10------------|------|
D|------------------------------10--8--10-------------------|------|
A|----------------------------------------------------------|------|
E|----------------------------------------------------------|------|



E|--8--8--8--8--11--|--8----------------|--11--8--------|-----|
B|--8--8--8--8--11--|-----10--8--10--8--|--11--8--8--8--|-----|
G|--8--8--8--8------|-----10--8--10--8--|---------8--8--|-----|
D|------------------|-------------------|---------------|-----|
A|------------------|-------------------|---------------|-----|
E|------------------|-------------------|---------------|-----|



E|--------------------|-----------------|-----|
B|--------------------|-----------------|-----|
G|-----------5--------|--5--------5-----|-----|
D|--------------7--5--|-----7--5-----7--|-----|
A|-----5--7-----------|-----------------|-----|
E|--8-----------------|-----------------|-----|

Comentários 1

  • Daniel Daniel: Postado em 09/11/2013 20:49

    Pra tocar é fácil,agora pra cantar vish...

Composição: Carlos Stein / Daniel Melingo / Don Gibson / Ed Bruce / Iain Moncrieff / Kenny Edmunds / Kim Tribble / Mookie / Rosendo Mercado
Esse não é o compositor? Avise-nos.
Contribuição: Taino from Hell Correções: Rodrigo e mais 1 »
Exibir acordes »
publicidade
fechar