Tom: E
		
Introdução: E B A B (3x) A

E       G#m
Ando só, pois só eu sei
C#m          
Pra onde ir 
E
por onde andei
A      B             E  E7
Ando só nem sei porque
A              B              E
Não me pergunte o que eu não sei
                G#m
Pergunte ao pó, desça ao porão
C#m                        E
Siga aquele carro, ou as pegadas que eu deixei
A             B             E  E7
Pergunte ao pó por onde andei
A                    B
Há um mapa dos meus passos
                       E    
Nos pedaços que eu deixei

E B A B  2X

E         
Desate o nó 
G#m
que te prendeu
C#m                
A uma pessoa 
      E
que nunca te mereceu
A          B           E  E7
Desate o nó que nos uniu
A         B        E      E7
Num desatino, um desafio

      A  B
Ando só
                  E    E7
Como um pássaro voando
      A B
Ando só
                    E  E7
Como se voasse em bando
      A
Ando só
      B
Pois só eu sei andar
C#m    B        A
Sem saber até quando
      A B  (E)
Ando só

SOLO: 

e|--------------------------------------------------13br-11--------------------
B|-------7-9--9b-9--9br------------7-9---12b-12--12---------9-12-13------------
G|-6-7-9-9---7------7---9-6-6-7-9-9----9---------------------------11-13------
D|-----------------------------------------------------------------------------
A|-----------------------------------------------------------------------------
E|-----------------------------------------------------------------------------



e|------------------------------------9--9--9--9--X-X-9--9--9--9--X--9--X-X-9--
B|------------------------------------9--9--9--9--X-X-9--9--9--9--X--9--X-X-9--
G|-11-11------------------------------9--9--9--9--X-X-9--9--9--9--X--9--X-X-9--
D|-------13-13-11-11-------13----11--11-11-11-11-X-X-11-11-11-11-X--11-X-X-11-
A|-------------------13-11----11-----------------------------------------------
E|-----------------------------------------------------------------------------
Texto Colunas
Alterar tom ½ tom ½ tom
afinação acordes na letra esconder tabs mais »

Comentários (0)

Composição: Humberto Gessinger
Esse não é o compositor? Avise-nos.
Contribuição: Zico Portari
  1. Tudo Que Você Quiser - Luan Santana Manteve-se 6.028 exibições
  2. Lepo Lepo - Psirico Manteve-se 4.297 exibições
  3. Pra Você - Onze:20 Manteve-se 4.147 exibições
  4. Mozão - Lucas Lucco Manteve-se 4.130 exibições
  5. Logo Eu - Jorge e Mateus Manteve-se 3.983 exibições
  6. Gaveta - Fernando e Sorocaba Manteve-se 3.779 exibições
  7. Só Os Loucos Sabem - Charlie Brown Jr. Manteve-se 3.131 exibições
  8. Tempo Perdido - Legião Urbana Manteve-se 2.706 exibições
  9. Fui Fiel - Gusttavo Lima Manteve-se 2.673 exibições
  10. Domingo de Manha - Marcos e Belutti Manteve-se 2.465 exibições
  1. Jorge e Mateus- Manteve-se 23.782 exibições
  2. Legião Urbana- Manteve-se 21.512 exibições
  3. Charlie Brown Jr.- Manteve-se 17.212 exibições
  4. Luan Santana- Manteve-se 17.149 exibições
  5. Fernandinho- Manteve-se 15.105 exibições
  6. Thalles Roberto- Manteve-se 11.065 exibições
  7. Católicas- Manteve-se 10.946 exibições
  8. Gusttavo Lima- Manteve-se 10.939 exibições
  9. Victor e Leo- Manteve-se 10.661 exibições
  10. Bruno e Marrone- Manteve-se 10.324 exibições
Exibir acordes »

Cifras e tabs

Fórum Cifra Club

Aprenda

Cifra Club News

Mais Serviços Cifra Club ID

Studio Sol

©1996 - 2014 Cifra Club · o primeiro, maior e mais acessado do Brasil · 329 mil músicas · 6.0 milhões pessoas cadastradas

publicidade
fechar