Tom: A
		
Intro: E5  B5  A5  B5 (3x) 
       D5 A5 (A5)

Riff 1:

                                                         A
E|-----------------------------------------------------------------------------|
B|-----------------------------------------------------------------------------|
G|-----------------------------------------------------------------------------|
D|-------6------------6------------6------------6-------2----------------------|
A|-4-4-4---4-4-3--3-3---3-3-2--2-2---2-2----------------0----------------------|
E|---------------------------------------6--6-6---6-6--------------------------|


Riff 2:

                                                         A
E|-----------------------------------------------------------------------------|
B|-----------------------------------------------------------------------------|
G|-----------------------------------------------------------------------------|
D|-------6------------6------------6------------6-------2----------------------|
A|-7-7-7---7-7-6--6-6---6-6-5--5-5---5-5-4--4-4---4-4---0----------------------|
E|-----------------------------------------------------------------------------|


E5       G#5
Ando só, pois só eu sei
(Riff 1)          
Pra onde ir por onde andei
A5      B5          (Riff 2)
Ando só nem sei porque
A5              B5              E5
Não me pergunte o que eu não sei
                G#5
Pergunte ao pó, desça ao porão
(Riff 1)                 
Siga aquele carro, ou as pegadas que eu deixei
A5             B5             (Riff 2)
Pergunte ao pó por onde andei
A5                    B5
Há um mapa dos meus passos
                       E5
Nos pedaços que eu deixei

( E5  B5  A5  B5 )  2x

E5
Desate o nó 
G#5
que te prendeu
(Riff1)               
A uma pessoa que nunca te mereceu

A5          B5          (Riff 2)
Desate o nó que nos uniu
A5         B5        E5
Num desatino, um desafio

      A5  B5
Ando só
                  E5
Como um pássaro voando
      A5 B5
Ando só
                    E5
Como se voasse em bando
      A5
Ando só
      B5
Pois só eu sei andar
C#5    B5        A5
Sem saber até quando
      A5 B5  (E5)
Ando só

Solo:
 

E|----------------------------------------------------------------17b16--------|
B|--------------------9b9---9b9-------------------------12b12--12--------------|
G|---------4-6-8----------------9-----6-7-9---8-9-11--9------------------------|
D|-6-7-9---6-6-6----9-----9-------9---7-7-7---9-9--9---------------------------|
A|-7-7-7-----------------------------------------------------------------------|
E|-----------------------------------------------------------------------------|



E|---------------------------------------------16-16-16-16-(4x)----------------|
B|-10-12-14---9-10-9----9----------------------17-17-17-17-(4x)----------------|
G|-------------------11---11-9-8-8-9-11-8--------------------------------------|
D|----------------------------------------9------------------------------------|
A|-----------------------------------------------------------------------------|
E|-----------------------------------------------------------------------------|

Comentários 1

  • Marina Marina: Postado em 28/06/2014 14:10

    Perfeita!!!

Composição: Humberto Gessinger
Esse não é o compositor? Avise-nos.
Contribuição: Zico Portari Correções: titorodrigues »
Exibir acordes »
publicidade
fechar