Às Vezes Nunca

Engenheiros do Hawaii

 Engenheiros do Hawaii
Tom: A
		
     Am       Am7M  Am7  Am6         F7           E7
Tô sempre escrevendo cartas      que nunca vou mandar        
                                                             
       Am      Am7M    Am7     Am6   F7            E7
pra amores secretos, revistas semanais e deputados federais  
                                                              
    Am  Am7M  Am7 Am6        F7           E7
Às vezes nunca sei       se "AS VEZES" leva crase            
                                                             
    Am   Am7M Am7 Am6         F7            E7
às vezes nunca sei      em que ponto acaba a frase           

    D          A/C#  Bm        A
Você sempre soube, eu não sabia           
                                          
        D         A/C#         Bm        A
toda frase acaba num riso de auto-ironia   Melodia 2
                                          
    D          A/C# Bm        A
você sempre soube,eu não sabia            
                                          
        D     A/C#          Bm
toda tarde acaba com melancolia           



  Am            Am7M   Am7     Am6  F7              E7
e, se eu escrevesse "SEM" com "S", ou escrevesse "CEM" com "C"?  
                                                                 
    Am   Am7M   Am7   Am6
por acaso faria alguma diferença?                                
                                                                 
  F7            E7
 que diferença faria?                                            
                                                                 
 Am Am7M     Am7    Am6
o que você faria no meu lugar...                                 
                                                                 
        F7                E7
se tivesse pra onde ir e não tivesse que esperar?                
                                                                 
Am      Am7M         Am7          Am6
O que você faria se estivesse no meu lugar...                    
                                                                 
        F7                      E7
se tivesse que fugir e não pudesse escapar?                      


     D         A/C#         Bm        A
Você sempre soube que eu não conseguiria             
                                                     
            D           A/C#        Bm             A
quando a frase acaba tarde, tudo fica pra outro dia  
                                                      
     D          A/C# Bm         A
Você sempre soube (eu não sabia)                     
                                                     
         D         A/C#       Bm
Toda tarde acaba em melancolia                       



   Am    Am7M             Am7   Am6
Às vezes não entendo minha própria letra                       
                                                               
          F7               E7
minha própria caneta me trai                                 
                                                               
     Am        Am7M         Am7      Am6  F7           E7
às vezes não entendo o que você quer dizer quando fica calada  



     D        A/C#   Bm         A
você sempre soube (eu não sabia)            
                                            
            D        A/C# Bm         A
quando a frase acaba o mundo silencia       
                                            
      D          A/C#         Bm          A
às vezes não entendo onde você quer chegar  
                                            
  D      A/C#    Bm
quando fica parada                          


               F#m    C#m           F#m            C#m
É como ficar esperando cartas que nunca vão chegar    
                                                      
                    D    C#m                   D    E
não vão xegar com "X" ... nem vão chegar com "CH"     
                                                      
              F#m    C#m            F#m          C#m
É como ficar esperando horas que custam a passar      
                                                      
              D      C#m                D        E
enquanto ficamos parados, andando pra lá e pra cá     
                                                      
             F#m       C#m     F#m       C#m
É como ficar desesperado de tanto esperar             
                                                      
     D           C#m              D           E
olhando pela janela até onde a vista alcançar         
                                                      
               F#m     C#m          F#m            C#m
É como ficar esperando cartas que nunca vão chegar    
                                                      
            D                  C#m         D         E
É como ficar relendo velhas cartas até a vista cansar 



               F#m  C#m          F#m  C#m
você sempre soube ... eu não sabia       
                                        
               D    C#m           D  C#m
você sempre soube ... eu não sabia	 




    Am      Am7M    Am7     Am6       F7              E7
E|---------------------------------|---------------------------------
B|---5---5---5---5---5---5---5---5-|---5---5---5---5---4---4---4---4-
G|---5---5---5---5---5---5---5---5-|---4---4---4---4---3---3---3---3-  < Melodia 1
D|-7-------6-------5-------4-------|-3---------------2---------------
A|-----7-------7-------5-----------|-----3-------3-------2-----------
E|-----------------------------5---|---------3---------------2---4---




    D       A/C#    Bm      A
E|---------------------------------
B|-----3-------2-------3-------2---
G|-----2-------2-------4-------2---
D|---4---4---2---2---4---4---2---2-
A|-5-------4-------2-------0-------
E|---------------------------------

                                                 < Melodia 2

    D       A/C#    Bm
E|---------------------------------------
B|-----3-------2-------3-------3-------3-
G|-----2-------2-------4-------4-------4-
D|---4---4---2---2---4---4---4---4---4---
A|-5-------4-------2-------2-------2-----
E|---------------------------------------






            F#m         C#m               F#m         C#m
E|-----------2-x--2-x----4-x-  -----------2-x--2-x----4-x-
B|-----------2-x--2-x----5-x-  -----------2-x--2-x----5-x-
G|-----------2-x--2-x----6-x-  -----------2-x--2-x----6-x-
D|---------------------------  ---------------------------
A|-2h4p2---------------4---x-  -2h4p2---------------4---x-
E|-------5-2-----------------  -------5-2-----------------

                                                            Melodia 3

            D           C#m             D           E
E|-----------2-x--2-x----4-x-|-----------2-x--2-x----4-x-
B|-----------3-x--3-x----5-x-|-----------3-x--3-x----5-x-
G|-----------2-x--2-x----6-x-|-----------2-x--2-x----4-x-
D|---------------------------|---------------------------
A|-2h4p2---5-----------4---x-|-2h4p2---5-----------7---x-
E|-------5-------------------|-------5-------------------






       F#5              C#5
E|-----------------------------------
B|-----------------------------------
G|-----------------------------------
D|------------------6~---6-6-6-6-6-6-
A|-4-4-4-4-4-4-4-x--4~---4-4-4-4-4-4-
E|-2-2-2-2-2-2-2-x-------------------



      F#5     A5     C#5
  E|---------------------------------
  B|---------------------------------
  G|---------------------------------
  D|---------2-2-2--6~---6-6-6-6-6-6-
  A|-4-4-4-4-0-0-0--4~---4-4-4-4-4-4-
  E|-2-2-2-2-------------------------

                                         Riff

    D5  C#5 B5  D5 C#5
E|-----------------------------------
B|-----------------------------------
G|-----------------------------------
D|-7-7-6-6-4-4-7/6~------------------
A|-5-5-4-4-2-2-5/4~------------------
E|-----------------------------------



       D5  C#5 B5  D5 E5
E|-----------------------------------
B|-----------------------------------
G|-----------------------------------
D|-7-7-6-6-4-4-7/9~------------------
A|-5-5-4-4-2-2-5/7~------------------
E|-----------------------------------





    D5 E5                               F#5
E|-----------------------------------------------
B|-----------------------------------------------
G|-----------------------------------------------
D|-7/9-9-9-9-9-9-9-9-9-9-9-9-9-9-9-9--11-11-11-X-  Final
A|-5/7-7-7-7-7-7-7-7-7-7-7-7-7-7-7-7---9--9--9-X-
E|-----------------------------------------------
63.583 exibições

Comentários 0

Composição: Gessinger
Esse não é o compositor? Avise-nos.
Contribuição: Jadson Correções: Jadson »
Exibir acordes »
publicidade
fechar