Coração Blindado

Engenheiros do Hawaii

 Engenheiros do Hawaii Compositor: gessinger/fonseca/ayala/aranha/pedro a.
Tom: A
		
intro: E  G#m (2x)  (solo)

(solo)


e-------------------------------------------------------------------------------
B|-----12-12----12-12-12-12-12--12/14/12-12-11-12-12----------------------------
G|--13-----------------------------------------------13-13-13-11-13-11-13-13-11-
D|------------------------------------------------------------------------------
A|------------------------------------------------------------------------------
E|------------------------------------------------------------------------------



e|---------------------------------------------------14-14B|--------------------
B|-----12-12----12-12-12-12-12--12/14/12-12-11-12-12----------------------------
G|--13--------------------------------------------------------------------------
D|------------------------------------------------------------------------------
A|------------------------------------------------------------------------------
E|------------------------------------------------------------------------------


E
fácil falar
                   G#m
fazer previsões depois que aconteceu
E
fácil pintar o quadro geral
     G#m
da janela de um arranha-céu

A
sem ter que sujar as mãos
E
sem ter nada a perder
F#m                  D                   E
sem o risco de pagar pelos erros que cometeu

E
fácil achar o caminho a seguir
    G#m
num mapa com lápis de cor
E
moleza mandar a tropa atacar 
   G#m
na tela do computador

A
sem o cheiro
sem o som
E
sem ter nunca estado lá
F#m                    D            E
sem ter que voltar pra ver o que restou

C#m     A                     C      D         
com a coragem que a distância dá
C#m      A                C         D
em outro tempo em outro lugar
          E
fica mais fácil

E  G#m  (2x)  (solo)

E
fácil demais 
                  G#m
fazer previsões depois que aconteceu
E
fácil sonhar condições ideais
    G#m
que nunca existirão

A
sempre à distância

sem noção 
E
o que rola pelo chão

F#m                    D         E
não são as peças de um jogo de xadrez

C#m     A                     C          D
com a coragem que a distância dá
C#m      A                C          D
em outro tempo em outro lugar
           E
tudo é tão fácil

E  G#m  (2x)      (solo)

A
sempre à distância

sem noção 
E
o que rola pelo chão
F#m                    D           E
não são as peças de um jogo de xadrez

C#m     A                     C          D
com a coragem que a distância dá
C#m      A                C          D
em outro tempo em outro lugar

C#m     A                     C          D
com a coragem que a distância dá
C#m      A                C          D
em outro tempo em outro lugar
           E
tudo é tão fácil
64.645 exibições

Comentários 2

  • Caio Caio: Postado em 16/08/2014 14:00

    muito massa

  • edudeoracki edudeoracki: Postado em 15/02/2012 16:47

    ótima=D

Composição: Humberto Gessinger / Mike Nolan
Esse não é o compositor? Avise-nos.
Contribuição: Maurício Terra Correções: rasec e mais 1 »
Exibir acordes »
publicidade
fechar