Fusão à Frio

Engenheiros do Hawaii

 Engenheiros do Hawaii
Tom: A
		
(Gessinger/Galvão)

Introd:  E  C#m  E  B  *baixo da intro

(E  C#m ) ** riff do baixo
ninguém sabe como serão os filhos deste casamento  B
indústria da informação + indústria do entretenimento

(A  F#m)  *** riff do baixo                  B
promessas de fusão à frio, desvio de comportamento

(E  C#m)  ***** riff pré-refrão
indústria da informação + indústria do entretenimento

 ( E   A )

(E  C#m)   ** o riff dessa parte é igual, mas tem um H.O ligando o B no C#                
ninguém sabe como serão os filhos deste casamento  B 
indústria da informação + indústria do entretenimento   (Dedilhado 1)

(A  F#m)  **** riff do baixo                            (Dedilhado 2)
promessas de fusão à frio, diversão e conhecimento

(E  C#m)  ***** riff pré-refrão
a única escolha que temos é a forma de pagamento



    E           A            E        A
em doses homeopáticas, em escala industrial
E              A         E        A
tudo acaba em samba, é sempre carnaval
C                        A            
tudo acaba em sombras, é sempre vendaval

    E          A              E         A         
em doses homeopáticas, em escala industrial
E              A       E           A
tudo acaba em samba é sempre carnaval

SOLO:  E  C#m  4x

E             A          E        A
tudo acaba em samba, é sempre carnaval
E             A           E        A
tudo acaba em sombras, é sempre vendaval
   E          A            E           A       (E  A) 2x
em doses homeopáticas, em escala industrial

  *baixo da intro

G-----------------------------------|----------------------------------
D------------2----------------------|-----------2----------------------
A-------2--4---4--2-4-4-4-4-4-4-4-4-|-------2-4---4--2-4-4-4-2-2-2-2-2-
E-0-0-0-----------------------------|-0-0-0----------------------------


** riff do baixo - nesse riff faz 3x a primeira parte desse riff e na 
                  4x faz a segunda parte do riff para entrar no A

G-----------------------------------|---------------------------------
D-------------2---------------------|-----------2---------------------
A-------2--4----4-2-4-4-4-4-4-4-4-4-|-------2-4---4-2-4-4-4-4-4-2-2-2-
E-0-0-0-----------------------------|-0-0-0---------------------------


*** riff do baixo - nesse riff faz 3x a primeira parte desse riff e na 
                  4x faz a segunda parte do riff para voltar ao E

G-----------------------------------|----------------------------------
D-----------2-----2-4-4-4-4-4-4-4-4-|-----------2----2-4-4-4-4-4-2-2-2-
A-0-0-0-2-4----4--------------------|-0-0-0-2-4----4-------------------
E-----------------------------------|----------------------------------



**** riff do baixo - esse é o 2º riff em A, é a parte onde já tem a batera

G--------------------------------------|-------------------------------------
D----------------------2-4-4-4-4-4-4-4-|---------------------2-4-4-4-4-2-2-2-
A-0-0-0-0-0-0-0-0----4-----------------|-0-0-0-0-0-0-0-0---4-----------------
E------------------2-------------------|-----------------2-------------------


***** riff pré-refrão - na parte que tem a batera não faz a segunda parte
                        desse riff

G-----------------------------------|-----------------------------
D-------------2---------------------|-----------2-------------11--
A-------2--4----4-2-4-4-4-4-4-4-4-4-|-------2-4---4-2-4-/--11-----
E-0-0-0-----------------------------|-0-0-0-----------------------



Dedilhado 1                     Dedilhado 2


e------12-----------12-------|-------12-----------12-----
B----9----9------9-----9-----|----10----10-----10----10--
G--9----------9--------------|--9------------9-----------
D----------------------------|---------------------------
A----------------------------|---------------------------
E----------------------------|---------------------------



Cifrado por Rafa Guess - 
(baixista da Banda Anyllia 25 de Montes Claros-MG)
qualquer dúvida, sugestões ou tablatura ou/e partitura
24.872 exibições

Comentários 0

Composição: Humberto Gessinger / Paulinho Galvão
Esse não é o compositor? Avise-nos.
Contribuição: Rafa Guess
Consegui tocarAinda não conseguiram tocar essa música. Seja o primeiro!
    Não consegui tocar
    Exibir acordes »
    publicidade
    fechar