Guantánamo

Engenheiros do Hawaii

 Engenheiros do Hawaii Compositor: Humberto Gessinger/Bernardo Fonseca/Gláucio Ayala/Fernando Aranha/Pedro Augusto
Tom: C
		
(intro 4x)  Am G F G

Am             G	  F    G
Quem foi que disse "te quero"?
Am 	 G     	     F     G
Qual era mesmo a canção?
Am	 G	  F        G
Quem viu a cor do dinheiro?
Am     G          F     G
Qual a melhor tradução?
Am	 G 	   F       G
Quem foi ao Rio de Janeiro?
Am       G       F   G
Qual era a intenção?
Am	  G      F       G
Qual foi o dia e a hora?
Am	   G    F
Quem foi embora...adeus
Dm
Me tira daqui (não adianta gritar)
G
Me ajuda a fugir  (ninguém vai escutar)
Am     G     F       Dm     C        G
Não aguento mais... eu não sei a resposta

(solo da gaita)

E|-10/12-10-8-10-8------8-|-10/12-10-8-10-12-8--|
B|-----------------8-10---|---------------------|
G|------------------------|---------------------|
D|------------------------|---------------------|
A|------------------------|---------------------|
E|------------------------|---------------------|


Am	    G	    F    G
Quem sabe o que vem primeiro?
Am	   G	    F    G
Quem sabe o que vem depois?
Am	 G	   F     G
Quem cabe no mundo inteiro?
Am	  G	    F    G
Quem mais além de nós dois?
Am	  G      F      G
Quem chama ao telefone?
Am	    G     F    G
Por que não bate na porta?
Am        G	 F     G
Que chama arde teu nome?
Am	   G	    F
Será que alguém se importa?
Dm
Me tira daqui (nao adianta gritar)
G
Me ajuda a fugir (ninguem vai escutar)
Am     G      F     Dm     C       G
Não aguento mais...eu não sei a resposta

(solo 2x)  Am G F Dm C G



E|----12b--12b--12b --15--10--12--8-----------------10--12--10--9----12b----|
B|------------------------------------12--14--------------------------------|
G|------------------------------------------------------------------------- |
D|--------------------------------------------------------------------------|
A|--------------------------------------------------------------------------|
E|------------------------------------------------------------------------- |




E|----12b--12b--12b--15--10--12--8-----------8--10--8--7----|
B|----------------------------------10--12------------------|
G|----------------------------------------------------------|
D|----------------------------------------------------------|
A|----------------------------------------------------------|
E|----------------------------------------------------------|



Am	  G        F    G
Qual é a droga que salva?
Am       G    F        G
Qual é a dose letal?
Am       G            F     G
Quem quer saber tudo isso?
Am       G         F
Será que aguenta a pressao?
Dm       C        G       Dm     C      G
Eu não sei a resposta...eu não sei a resposta
Am      G     F      Dm      C        G
Não aguento mais...eu não sei a resposta
Am      G     F      Dm      C       G
Não aguento mais...eu não sei a resposta.


(Solo Final)


E|-10/12-10-8-10-8-----8-|
B|---------------8-10----|
G|-----------------------|
D|-----------------------|
A|-----------------------|
E|-----------------------|
Texto Colunas
Alterar tom ½ tom ½ tom
afinação acordes na letra esconder tabs mais »

Comentários (3)

  • iagokohnlein iagokohnlein: Postado em 03/11/2011 21:32

    a batida é fácil, a música também, Engenheiros sempre foda ;D

  • duuda_93 duuda_93: Postado em 29/08/2011 13:45

    é só vc ouvir a música que vai pegar a batida...

  • pgb3025342 pgb3025342: Postado em 02/05/2011 16:28

    Qual é a Batida dessa música?

Composição: Humberto Gessinger / Mike Nolan
Esse não é o compositor? Avise-nos.
Contribuição: wsantos7 Correções: brusno , Dário Vaz e mais 10 »
  1. Tudo Que Você Quiser - Luan Santana Manteve-se 4.902 exibições
  2. Lepo Lepo - Psirico Manteve-se 3.570 exibições
  3. Mozão - Lucas Lucco Manteve-se 3.423 exibições
  4. Logo Eu - Jorge e Mateus Manteve-se 3.029 exibições
  5. Gaveta - Fernando e Sorocaba Manteve-se 2.722 exibições
  6. Só Os Loucos Sabem - Charlie Brown Jr. Manteve-se 2.470 exibições
  7. Pra Você - Onze:20 Manteve-se 2.088 exibições
  8. Tempo Perdido - Legião Urbana Manteve-se 1.989 exibições
  9. Fui Fiel - Gusttavo Lima Manteve-se 1.760 exibições
  10. Na Linha do Tempo - Victor e Leo Manteve-se 1.759 exibições
  1. Jorge e Mateus- Manteve-se 18.170 exibições
  2. Legião Urbana- Manteve-se 16.306 exibições
  3. Luan Santana- Manteve-se 14.644 exibições
  4. Charlie Brown Jr.- Manteve-se 14.217 exibições
  5. Fernandinho- Manteve-se 12.391 exibições
  6. Thalles Roberto- Manteve-se 9.162 exibições
  7. Aline Barros- Manteve-se 9.064 exibições
  8. Católicas- Manteve-se 8.769 exibições
  9. Victor e Leo- Manteve-se 8.687 exibições
  10. Bruno e Marrone- Manteve-se 8.333 exibições
Exibir acordes »

Cifras e tabs

Fórum Cifra Club

Aprenda

Cifra Club News

Mais Serviços Cifra Club ID

Studio Sol

©1996 - 2014 Cifra Club · o primeiro, maior e mais acessado do Brasil · 329 mil músicas · 5.9 milhões pessoas cadastradas

publicidade
fechar