Ninguém = Ninguém

Engenheiros do Hawaii

 Engenheiros do Hawaii
Tom: A
		
Introdução: A

1ª Parte: Solo (várias vezes)


e|----------------|
B|----7/10--------|
G|9/6------9/6/2--|
D|----------------|
A|----------------|
E|----------------|


2ª Parte: Há tantos quadros na parede...
         ...e nenhuma é igual a outra... (ouça a música e tire as dúvidas)

e|-------------------------------|
B|-------------------------------|
G|7/9--------7/9-----------------|
D|---10---------10------9/7--6/4-|
A|-------------------------------|
E|-------------------------------|



A
Há tantos quadros na parede
                        D            A    D E
Há tantas formas de se ver o mesmo quadro
          A
Há tanta gente pelas ruas
                     D              A    D A
Há tantas ruas e nenhuma é igual a outra
         D      E
Ninguém = ninguém
      D
Me espanta que tanta gente sinta
                                A
(se é que sente) a mesma indiferença

Há tantos quadros na parede
                        D            A    D A
Há tantas formas de se ver o mesmo quadro

Há palavras que nunca são ditas
                     D            F#m E F#m E
Há muitas vozes repetindo a mesma frase:
        F#m    E
Ninguém = ninguém
     D
Me espanta que tanta gente minta
                            A
(descaradamente) a mesma mentira

       F#m
Todos iguais
       A
E tão desiguais
    D                      A
mas uns mais iguais que os outros

         A
Há pouca água e muita sede

Uma represa, um apartheid
                 D     A       D A
(a vida seca, os olhos úmidos)

Entre duas pessoas

Entre quatro paredes

Tudo fica claro
         D         F#m E F#m E
Ninguém fica indiferente
        F#m    E
Ninguém = ninguém
      D
Me assusta que justamente agora
                                     A
Todo mundo (tanta gente) tenha ido embora

       F#m
Todos iguais
       A
Todos iguais
    D                      A
mas uns mais iguais que os outros

Solo


e|10-12-14-12-10--------|--------------|10-12-14-12-10----10-------|----------------|
B|---------------12~~---|--------------|---------------12----12----|-----------9/10~|
G|-------------------10-|7-9-11-9-7-7~~|------------------------10-|7-9-11-9-7------|
D|----------------------|--------------|---------------------------|----------------|
A|----------------------|--------------|---------------------------|----------------|
E|----------------------|--------------|---------------------------|----------------|



e|------------------------------------------------|-----------------------------------------|
B|12~~--------------------------------------------|-----------------------------------------|
G|---11-11-13-11-11--11-13-11-11--11-13-11-11--11-|-11~~-7-7-9-7-7--7-9-7-7--7-9-7-7--7-9-7-|
D|------------------------------------------------|-----------------------------------------|
A|------------------------------------------------|-----------------------------------------|
E|------------------------------------------------|-----------------------------------------|


          3x  

e|----------------|  |---|
B|------0-3-0---0-|  |---|
G|----1-------2---|  |-2-|
D|2-2-------------|  |---|
A|----------------|  |---|
E|----------------|  |---|


           D
O que me encanta é que tanta gente

Sinta (se é que sente)

Ou

Minta (desesperadamente)
          A
Da mesma forma

       F#m
Todos iguais
       A
Todos iguais
    D                      A
mas uns mais iguais que os outros
        F#m
tão desiguais...
          A     D   A
tão desiguais...
162.734 exibições

Comentários 0

Composição: Humberto Gessinger / Mike Nolan
Esse não é o compositor? Avise-nos.
Contribuição: vini Correções: ghsoliveira15 »
Exibir acordes »
publicidade
fechar