O Exército de um Homem só I

Engenheiros do Hawaii

 Engenheiros do Hawaii
O Baixo começa aos 0:12 assim:

G|---------|---------|---------|---------|
D|---------|---------|---------|---------|
A|---------|---------|---------|---------| x1
E|----0----|----5----|----7----|----0----|

Não importa se só tocam...
G|-----------------------------------------------------------|      
D|-----------------------------------------------------------|
A|-------------------------------5-----7---------------------| 
E|--0--------5---------7-----------------------7-------------|
Em paredes de baanheiro...
G|-----------------------------------------------------------| 
D|-----------------------------------------------------------|
A|---------------------------7-----9-------------------------|
E|--0--------5---------7-----------------7-------------------|

G|---------|---------|---------|---------|
D|---------|---------|---------|---------|
A|---------|---------|---------|---------|
E|----0----|----5----|----7----|----0----|

Pré-refrão:

Nos interessa o que não foi impresso:
G|-----------------------------------------------------------|      
D|-----------------------------------------------------------|
A|-------------------------------7-----9---------------------| 
E|--0--------5---------7-----------------------7----0--------|

Refrão:

Somos um exército...
G|-------------------------------------------------------------|
D|-----------------9--7-7776-----------------------------------|
A|---------9----7-------------9-7------4---4-5-7---------------|
E|----7-7----7--------------------5-5----5--------4-5-4-5-6-7--| x3
sem bandeiras, sem fronteiras..
G|--------------|
D|--------------|
A|--------------|
E|--4-5-4-5-6-7-|

G|---------|---------|---------|---------|
D|---------|---------|---------|---------|
A|---------|---------|---------|---------| x1
E|----0----|----5----|----7----|----0----|

Não importa se só tocam...
G|-----------------------------------------------------------|      
D|-----------------------------------------------------------|
A|-------------------------------5-----7---------------------| 
E|--0--------5---------7-----------------------7-------------|

G|-----------------------------------------------------------| 
D|-----------------------------------------------------------|
A|---------------------------7----9--------------------------|
E|--0--------5---------7--------------0----------------------|

Somos um exército...
G|------------------------------------------------------------|
D|-----------------9--7-7776----------------------------------|
A|---------9---7-------------9-7-------4---4-5-7--------------|  x3
E|----7-7----7--------------------5-5----5--------4-5-4-5-6-7-| 

sem bandeiras, sem fronteiras..
G|--------------|
D|--------------|
A|--------------|
E|--4-5-4-5-6-7-|

Não interessa o que o bom senso diz...
G|---------|---------|---------|---------| 
D|---------|---------|---------|---------|   x2
A|---------|---------|---------|---------|
E|----0----|----5----|----7----|----0----|

Solo:

G|------------1--------1---1-4-1----1-4-1-------------|
D|------2---2---2--2-2---2--------2-------2-------2-2-|
A|--2-2---2---------------------------------2-2-2-----|
E|----------------------------------------------------|
Somos um exército...
G|-------------------------------------------------------------------|
D|-----------------9--7-7776-----------------------------------------|
A|---------9---7-------------9-7------4---4-5-7----------------------|
E|----7-7----7--------------------5-5---5--------4-5-4-5-6-7---------| x3
Todos sabem que tanto faz:
G|--------------|
D|--------------|
A|--------------|
E|--4-5-4-5-6-7-|
G|---------|---------|---------|---------|
D|---------|---------|---------|---------|
A|---------|---------|---------|---------|
E|----0----|----5----|----7----|----0----|


Final:
G|---------------------------------------------------------------------------------------------|
D|------------------------------------------------------------------------------14-14-14-14\---|
A|-------------------------------------------------------------7-7-7-7-7-7-7/14----------------|
E|-0000000000/14-16-14\55555555555/14-16-14\777777777/14-16-14---------------------------------|

G|----------------------------------------------------------------------------------------------| 
D|------------------------------------------------------------------------------6-7-8-9---------|
A|---7-7-7-7-7-7-7/9-11-9\----------------------------------------------------7-----------------|
E|-------------------------5-5-5-5-5-5-5/14-16-14\-7-7-7-7-7-7-7-7-7/14-16-14-------------------|

Comentários (0)

Composição: Humberto Gessinger / Augusto Licks
Esse não é o compositor? Avise-nos.
Contribuição: kuka_g3 Correções: ravitd »
Consegui tocarAinda não conseguiram tocar essa música. Seja o primeiro!
    Não consegui tocar
    1. Tudo Que Você Quiser - Luan Santana Manteve-se 6.037 exibições
    2. Lepo Lepo - Psirico Manteve-se 4.468 exibições
    3. Mozão - Lucas Lucco Manteve-se 4.227 exibições
    4. Logo Eu - Jorge e Mateus Manteve-se 3.853 exibições
    5. Gaveta - Fernando e Sorocaba Manteve-se 3.342 exibições
    6. Pra Você - Onze:20 Manteve-se 3.171 exibições
    7. Só Os Loucos Sabem - Charlie Brown Jr. Manteve-se 3.013 exibições
    8. Tempo Perdido - Legião Urbana Manteve-se 2.451 exibições
    9. Fui Fiel - Gusttavo Lima Manteve-se 2.434 exibições
    10. Na Linha do Tempo - Victor e Leo Manteve-se 2.183 exibições
    1. Jorge e Mateus- Manteve-se 22.974 exibições
    2. Legião Urbana- Manteve-se 20.295 exibições
    3. Luan Santana- Manteve-se 17.553 exibições
    4. Charlie Brown Jr.- Manteve-se 17.249 exibições
    5. Fernandinho- Manteve-se 14.873 exibições
    6. Thalles Roberto- Manteve-se 11.307 exibições
    7. Católicas- Manteve-se 10.786 exibições
    8. Victor e Leo- Manteve-se 10.519 exibições
    9. Gusttavo Lima- Manteve-se 10.295 exibições
    10. Aline Barros- Manteve-se 10.226 exibições

    Cifras e tabs

    Fórum Cifra Club

    Aprenda

    Cifra Club News

    Mais Serviços Cifra Club ID

    Studio Sol

    ©1996 - 2014 Cifra Club · o primeiro, maior e mais acessado do Brasil · 329 mil músicas · 5.9 milhões pessoas cadastradas

    publicidade
    fechar