Tom: E
		
(intro 2x) A9 B C#m


E|--0--------|
B|----0------|
G|------2----|
D|--------2--|
A|-----------|
E|-----------|


(riff 1 - 2x)

E|--12--12---14--14-----12-14-12--12-12-----------------|
B|----14--14---16--16-----------------------------------|
G|------------------------------------------------------|
D|------------------------------------------------------|
A|------------------------------------------------------|
E|------------------------------------------------------|


   A          B              C#m
o preço que se paga às vezes é alto demais
   A        B        C#m
é alta madrugada, já é tarde demais
              G#
pra pedir perdão
               F#m     B
pra fingir que não foi mal

(riff 1 - 2x)

E|--12--12---14--14-----12-14-12--12-12-----------------|
B|----14--14---16--16-----------------------------------|
G|------------------------------------------------------|
D|------------------------------------------------------|
A|------------------------------------------------------|
E|------------------------------------------------------|


A           B               C#m
uma luz se apaga num prédio em frente ao meu
 A                   B            C#m
"sempre em frente" foi o conselho que ela me deu
           G#            F#m     B
sem me avisar que iria ficar pra trás

(riff 2)

        e|---------|
        B|--3/13---|
        G|---------|
        D|---------|
        A|---------|
        E|---------|


           E
E agora eu pago os meus pecados
    F#m            G#m                B
por ter acreditado que só se vive uma vez


        e|---------|
        B|---13/3--|
        G|---------|
        D|---------|
        A|---------|
        E|---------|


   E
Eu pago os meus pecados
    F#m            G#m                B
por ter acreditado que só se vive uma vez
           C#m
Pensei que era liberdade
B              A                 F#m    B
mas, na verdade, eram as grades da prisão

(riff 3 - 2x)

E|--14-------14-------14-------12-------12-------12-----|
B|-----14-------14-------14-------14-------14-------14--|
G|--------11-------11----------------11-------11--------|
D|------------------------------------------------------|
A|------------------------------------------------------|
E|------------------------------------------------------|



E|--12-------14-------12-------14-------12-------14-----|
B|-----14-14----14-14----14-------14-14----14-14----14--|
G|------------------------------------------------------|
D|------------------------------------------------------|
A|------------------------------------------------------|
E|------------------------------------------------------|


(F#m B)
da prisão

(riff 1 - 3x)

E|--12--12---14--14-----12-14-12--12-12-----------------|
B|----14--14---16--16-----------------------------------|
G|------------------------------------------------------|
D|------------------------------------------------------|
A|------------------------------------------------------|
E|------------------------------------------------------|



E|--12--12---14--14-----12-12-12------------------------|
B|----14--14---16--16-----------------------------------|
G|------------------------------------------------------|
D|------------------------------------------------------|
A|------------------------------------------------------|
E|------------------------------------------------------|


   A          B             C#m
o preço que se paga às vezes é alto demais
  A        B        C#m
é alta madrugada, já é tarde demais
     A          B               C#m
mais uma luz se apaga no prédio em frente ao meu
    A       B        C#m
é a última janela iluminada
             G#
nada de anormal...
           F#m    B
amanhã ela vai voltar

(riff 2)

        e|---------|
        B|--3/13---|
        G|---------|
        D|---------|
        A|---------|
        E|---------|


                  E
Enquanto isso, eu pago os meus pecados
    F#m            G#m                B
por ter acreditado que só se vive uma vez


        e|---------|
        B|---13/3--|
        G|---------|
        D|---------|
        A|---------|
        E|---------|


   E
Eu pago os meus pecados
    F#m            G#m                B
por ter acreditado que só se vive uma vez
           C#m
pensei que era liberdade
B              A               F#m   B
mas, na verdade, me enganei outra vez

(riff 3 - 2x)


E|--14-------14-------14-------12-------12-------12-----|
B|-----14-------14-------14-------14-------14-------14--|
G|--------11-------11----------------11-------11--------|
D|------------------------------------------------------|
A|------------------------------------------------------|
E|------------------------------------------------------|



E|--12-------14-------12-------14-------12-------14-----|
B|-----14-14----14-14----14-------14-14----14-14----14--|
G|------------------------------------------------------|
D|------------------------------------------------------|
A|------------------------------------------------------|
E|------------------------------------------------------|


  (F#m B)
outra vez...

(riff 2)

        e|---------|
        B|--3/13---|
        G|---------|
        D|---------|
        A|---------|
        E|---------|


   E
E agora eu pago os meus pecados
    F#m           G#m                 B
por ter acreditado que só se vive uma vez


        e|---------|
        B|---13/3--|
        G|---------|
        D|---------|
        A|---------|
        E|---------|


   E
Eu pago os meus pecados
    F#m           G#m                 B
por ter acreditado que só se vive uma vez

(riff 2)

        e|---------|
        B|--3/13---|
        G|---------|
        D|---------|
        A|---------|
        E|---------|


   E
Eu pago os meus pecados
    F#m           G#m                 B
por ter acreditado que só se vive uma vez
           C#m
pensei que era liberdade
B          A           E    F#m  G#m  B
mas na verdade era só solidão...

(riff 2)

        e|---------|
        B|--3/13---|
        G|---------|
        D|---------|
        A|---------|
        E|---------|



        e|---------|
        B|--13/3---|
        G|---------|
        D|---------|
        A|---------|
        E|---------|


    E F#m G#m B  (E)
solidão...

(final)

        e|---------|
        B|--3/13---|
        G|---------|
        D|---------|
        A|---------|
        E|---------|
412.305 exibições

Comentários 9

Composição: Humberto Gessinger / Mike Nolan
Esse não é o compositor? Avise-nos.
Contribuição: sevennobbig Correções: Fernando Alves , Gaspa e mais 11 »
Exibir acordes »
publicidade
fechar