Outras Freqüências

Engenheiros do Hawaii

 Engenheiros do Hawaii
Tom: D
		
(intro)  Bm F#m7/A G7M E


 A E/G# G D/F# (acompanha o solo)
E|---------------------------------------------------------------|
B|--2-----------2-----------------5-3-2-2/5-2-3-2/5-0--0---------|
G|----4-2--4~~-----4--2-4--2---2----------------------2----------|
D|---------------------------4-----------------------------------|
A|---------------------------------------------------------------|
E|---------------------------------------------------------------|


A            E/G#
  Seria mais fácil
  G        D/F#
Fazer como todo mundo faz
A                E/G#  G
  O caminho mais curto
   D/F#
Produto que rende mais
A            E/G#
  seria mais fácil
  G        D/F#
Fazer como todo mundo faz
A            E/G#  G
  Um tiro certeiro
  D/F#              A D/F#
Modelo que vende mais
arj.1
     E
Mas nós
              F#m
Dançamos no silêncio
E                  F#m
  Choramos no carnaval
Bm                         F#m
  Não vemos graças nas gracinhas da TV
   G                             E
Morremos de rir no horário eleitoral

(solo base) A E/G# G D/F#

A            E/G#
  Seria mais fácil
  G        D/F#
Fazer como todo mundo faz
A       E/G#        G
  Sem sair do sofá
   D/F#
Deixar a ferrari pra tráz
A            E/G#
  Seria mais fácil
  G        D/F#
Fazer como todo mundo faz
A            E/G#
  O milésimo gol
   G                  D/F#  A D/F#
Sentado na mesa de um bar
arj.1
     E
Mas nós
                     F#m
Vibramos em outra freqüência
E                         F#m
  Sabemos que não é bem assim
Bm                         F#m
  se fosse fácil achar o caminho das pedras
       G                              E
Tantas pedras no caminho não seria ruim

(A F A F A F) (A E/G# G D/F#)

(violino 2x - junto com o solo)

E|-------------|---------------------------------|
B|-2-3-5-3-2-0-|--5-3---0-2-3-2-0------2---------|
G|-------------|------------------2---2----------|
D|-------------|---------------------4-----------|


(solo 2x - começa depois da primeira parte do violino)

E|--------------------------------------------------------|
B|--5-3-2-0-----2/3----3-2-0------------------------------|
G|----------2-4--------------2---2-4/6--------------------|
D|-----------------------------4--------------------------|


(arj.1)
     E
Mas nós
                     F#m
Vibramos em outra freqüência
E                         F#m
  Sabemos que não é bem assim
Bm                          F#m
  se fosse fácil achar o caminho das pedras
       G                              E
Tantas pedras no caminho não seriam ruim

(solo base) A E/G# G D/F#

(arj.1)

(junto ao refrão)


      E                       F#m                          E
E|-7-7-7-7-7-7-7-7-7-|----------------------------|-7-7-7-7-7-7-7-7-7-|
B|-9-9-9-9-9-9-9-9-9-|-7-7-7-7-7-7-7-7-7----------|-9-9-9-9-9-9-9-9-9-|
G|-9-9-9-9-9-9-9-9-9-|-6-6-6-6-6-6-6-6-6----------|-9-9-9-9-9-9-9-9-9-|
D|-------------------|-7-7-7-7-7-7-7-7-7----------|-------------------|
A|-------------------|----------------------------|-------------------|
E|-------------------|----------------------------|-------------------|



      F#m                            Bm                        F#m
E|-7-7-7-7-7-7-7-7-7----------|-7-7-7-7-7-7-7-7-7-|-7-7-7-7-7-7-7-7-7----------|
B|-6-6-6-6-6-6-6-6-6----------|-7-7-7-7-7-7-7-7-7-|-6-6-6-6-6-6-6-6-6----------|
G|-7-7-7-7-7-7-7-7-7----------|-7-7-7-7-7-7-7-7-7-|-7-7-7-7-7-7-7-7-7----------|
D|----------------------------|-------------------|----------------------------|
A|----------------------------|-------------------|----------------------------|
E|----------------------------|-------------------|----------------------------|



             G                        E
E|-7-7-7-7-7-7-7-7-7--|-7-7-7-7-7-7--|
B|-8-8-8-8-8-8-8-8-8--|-9-9-9-9-9-9--|
G|-7-7-7-7-7-7-7-7-7--|-9-9-9-9-9-9--|
D|--------------------|--------------|
A|--------------------|--------------|
E|--------------------|--------------|
Texto Colunas
Alterar tom ½ tom ½ tom
afinação acordes na letra esconder tabs mais »
265.982 exibições

Comentários (4)

  • Silvio Silvio : Postado em 11/08/2013 14:36

    Video-aula essa musica é D+

  • pdrohl pdrohl: Postado em 12/10/2012 19:52

    musica fantastica! ...esse player do cifraclub é bem ruim perto do outro(do youtube)

  • jeazin jeazin: Postado em 29/09/2012 09:53

    Engenheiros \o/

  • thwu thwu: Postado em 06/05/2012 00:01

    por favor faz uma video aula

Composição: Humberto Gessinger / Mike Nolan
Esse não é o compositor? Avise-nos.
Contribuição: sevennobbig Correções: carlos1eduardo , Nose e mais 4 »
  1. Tudo Que Você Quiser - Luan Santana Manteve-se 4.902 exibições
  2. Lepo Lepo - Psirico Manteve-se 3.570 exibições
  3. Mozão - Lucas Lucco Manteve-se 3.423 exibições
  4. Logo Eu - Jorge e Mateus Manteve-se 3.029 exibições
  5. Gaveta - Fernando e Sorocaba Manteve-se 2.722 exibições
  6. Só Os Loucos Sabem - Charlie Brown Jr. Manteve-se 2.470 exibições
  7. Pra Você - Onze:20 Manteve-se 2.088 exibições
  8. Tempo Perdido - Legião Urbana Manteve-se 1.989 exibições
  9. Fui Fiel - Gusttavo Lima Manteve-se 1.760 exibições
  10. Na Linha do Tempo - Victor e Leo Manteve-se 1.759 exibições
  1. Jorge e Mateus- Manteve-se 18.170 exibições
  2. Legião Urbana- Manteve-se 16.306 exibições
  3. Luan Santana- Manteve-se 14.644 exibições
  4. Charlie Brown Jr.- Manteve-se 14.217 exibições
  5. Fernandinho- Manteve-se 12.391 exibições
  6. Thalles Roberto- Manteve-se 9.162 exibições
  7. Aline Barros- Manteve-se 9.064 exibições
  8. Católicas- Manteve-se 8.769 exibições
  9. Victor e Leo- Manteve-se 8.687 exibições
  10. Bruno e Marrone- Manteve-se 8.333 exibições
Exibir acordes »

Cifras e tabs

Fórum Cifra Club

Aprenda

Cifra Club News

Mais Serviços Cifra Club ID

Studio Sol

©1996 - 2014 Cifra Club · o primeiro, maior e mais acessado do Brasil · 329 mil músicas · 5.9 milhões pessoas cadastradas

publicidade
fechar