Outras Freqüências

Engenheiros do Hawaii

 Engenheiros do Hawaii
Tom: A
		
(intro)  Bm F#m7/A G7M E


  A E/G# G D/F# (acompanha o solo)
E|--------------------------------2/0------2/0-------------------|
B|-2/0----------2/0-------------------2-2/5----2-2/5-2-0---------|
G|----2-2/4--------2--2/4--2/0---2--------------------2----------|
D|-----------------------------4---------------------------------|
A|---------------------------------------------------------------|
E|---------------------------------------------------------------|


A            E/G#
  Seria mais fácil
  G        D/F#
Fazer como todo mundo faz
A                E/G#  G
  O caminho mais curto
   D/F#
Produto que rende mais
A            E/G#
  seria mais fácil
  G        D/F#
Fazer como todo mundo faz
A            E/G#  G
  Um tiro certeiro
  D/F#              A D/F#
Modelo que vende mais
arj.1
     E
Mas nós
              F#m
Dançamos no silêncio
E                  F#m
  Choramos no carnaval
Bm                         F#m
  Não vemos graças nas gracinhas da TV
   G                             E
Morremos de rir no horário eleitoral

(solo base) A E/G# G D/F#

A            E/G#
  Seria mais fácil
  G        D/F#
Fazer como todo mundo faz
A       E/G#        G
  Sem sair do sofá
   D/F#
Deixar a ferrari pra tráz
A            E/G#
  Seria mais fácil
  G        D/F#
Fazer como todo mundo faz
A            E/G#
  O milésimo gol
   G                  D/F#  A D/F#
Sentado na mesa de um bar
arj.1
     E
Mas nós
                     F#m
Vibramos em outra freqüência
E                         F#m
  Sabemos que não é bem assim
Bm                         F#m
  se fosse fácil achar o caminho das pedras
       G                              E
Tantas pedras no caminho não seria ruim

(A F A F A F) (A E/G# G D/F#)

(violino 2x - junto com o solo)

E|-------------|---------------------------------|
B|-2-3-5-3-2-0-|--5-3---0-2-3-2-0------2---------|
G|-------------|------------------2---2----------|
D|-------------|---------------------4-----------|


(solo 2x - começa depois da primeira parte do violino)

E|--------------------------------------------------------|
B|--5-3-2-0-----2/3----3-2-0------------------------------|
G|----------2-4--------------2---2-4/6--------------------|
D|-----------------------------4--------------------------|


(arj.1)
     E
Mas nós
                     F#m
Vibramos em outra freqüência
E                         F#m
  Sabemos que não é bem assim
Bm                          F#m
  se fosse fácil achar o caminho das pedras
       G                              E
Tantas pedras no caminho não seriam ruim

(solo base) A E/G# G D/F#

(arj.1)

(junto ao refrão)


       E                       F#m                          E
E|-7-7-7-7-7-7-7-7-7-|----------------------------|-7-7-7-7-7-7-7-7-7-|
B|-9-9-9-9-9-9-9-9-9-|-7-7-7-7-7-7-7-7-7----------|-9-9-9-9-9-9-9-9-9-|
G|-9-9-9-9-9-9-9-9-9-|-6-6-6-6-6-6-6-6-6----------|-9-9-9-9-9-9-9-9-9-|
D|-------------------|-7-7-7-7-7-7-7-7-7----------|-------------------|
A|-------------------|----------------------------|-------------------|
E|-------------------|----------------------------|-------------------|



       F#m                            Bm                        F#m
E|-7-7-7-7-7-7-7-7-7----------|-7-7-7-7-7-7-7-7-7-|-7-7-7-7-7-7-7-7-7----------|
B|-6-6-6-6-6-6-6-6-6----------|-7-7-7-7-7-7-7-7-7-|-6-6-6-6-6-6-6-6-6----------|
G|-7-7-7-7-7-7-7-7-7----------|-7-7-7-7-7-7-7-7-7-|-7-7-7-7-7-7-7-7-7----------|
D|----------------------------|-------------------|----------------------------|
A|----------------------------|-------------------|----------------------------|
E|----------------------------|-------------------|----------------------------|



              G                        E
E|-7-7-7-7-7-7-7-7-7--|-7-7-7-7-7-7--|
B|-8-8-8-8-8-8-8-8-8--|-9-9-9-9-9-9--|
G|-7-7-7-7-7-7-7-7-7--|-9-9-9-9-9-9--|
D|--------------------|--------------|
A|--------------------|--------------|
E|--------------------|--------------|
277.035 exibições

Comentários 4

  • Silvio Silvio : Postado em 11/08/2013 14:36

    Video-aula essa musica é D+

  • pdrohl pdrohl: Postado em 12/10/2012 19:52

    musica fantastica! ...esse player do cifraclub é bem ruim perto do outro(do youtube)

  • jeazin jeazin: Postado em 29/09/2012 09:53

    Engenheiros \o/

  • thwu thwu: Postado em 06/05/2012 00:01

    por favor faz uma video aula

Composição: Humberto Gessinger / Mike Nolan
Esse não é o compositor? Avise-nos.
Contribuição: sevennobbig Correções: Eduardo Canova , Hiagoc e mais 5 »
Exibir acordes »
publicidade
fechar