Pra Ficar Legal

Engenheiros do Hawaii

 Engenheiros do Hawaii
intro 

G-------------------------------------------------------------------------|
D-------------------------------------------------------------------------|
A---3-2----5-55-5----2-2----2-2------3-2---5-55-5----2-2----2-2--2---3----|
E-------3-----------3------3-------------3---------3------3---------------|

Agora não, ainda é cedo pra entender, vou sair do ar um tempo...
Na contra mão do que está por acontecer, vou respirar com paciência
G-------------------------------------------------------------------------|
D-------------------------------------------------------------------------|
A-----3-------------------------0----------3------------3----------7/10---|
E-----------------3-------------------------------------------------------|

Sei que lá fora ...               brilham luzes artificiais

G-------------------------------------------------------------------------|
D-------------------------------------------------------------------------|
A------------3h5-3-----------/5-55-5--------------------------------------|
E---1--11----------3-5--55------------------------------------------------|

Lá fora ...    o fogo das caldeiras pede mais e mais. Querem sempre mais           

G-------------------------------------------------------------------------|
D--------------------------------------------------------12----12---------|
A------------3h5-3-----------------------------------/12----12------------|
E---1--11----------3-5--55---3-33--1-11--1-11--3-33-----------------------|

Louco pra ficar legal....

G-------------------------------------------------------------------------|
D--------------------3-3-/5-3----------------------3-33--33-2-0-----------|
A---3-33---2-22---------------5-3-------------------------------3---------|
E----------------1--1-------------5-55--3-33--1--1------------------------|

Repete o ínicio

Agora não, é muito tarde pra entender, eu to fechado pra balanço
G-------------------------------------------------------------------------|
D-------------------------------------------------------------------------|
A-----3------------------------0-------3---3-----10-8--10-8----------0----|
E-----------------3-------------------------------------------10-9\-3-----|

Repete a mesma coisa até o final

Final

G-------------------------------------------------------------------------|
D-------------------------------------------------------------------------|
A---3-2----5-55-5----2-2----2-2---3-2---5-55-5----2-2----2-2--2---3-2-3---|
E-------3-----------3------3----------3---------3------3-------------2----|


_______________________________________________________
Contribuição: Renato Pandur(renato.pandur@tvfronteira.com.br)

Comentários 0

Composição: Humberto Gessinger / Paulinho Galvão
Esse não é o compositor? Avise-nos.
Consegui tocarAinda não conseguiram tocar essa música. Seja o primeiro!
    Não consegui tocar
    publicidade
    fechar