Rádio Pirata

Engenheiros do Hawaii

 Engenheiros do Hawaii
A cifras estão na ordem em que a musica é tocada.

G-----------------------------------------------------------------------------
D--11--11--11--11--11--11--11--11--------12--12--12--12--12--12--12--12-------      2x
A----12--12--12--12--12--12--12--12--------12--12--12--12--12--12--12--12----- 
E-----------------------------------------------------------------------------

"Abordar navios..."
G---------------------------------------------------------
D---------------------------------------------------------      2x
A---------------------------5-5-5-5-5-5-5-5-5-5-5-5------- 
E--5-5-5-5-5-5-5-5-5-5-5-5--------------------------------

"Pirataria..."
G---------------------------------------------------------
D---------------------------------------------------------      
A--7-7-7-7-7-7-7-7-7-7-7-7--5-5-5-5-5-5-5-5-5-5-5-5------- 
E---------------------------------------------------------

G------------------------------------------------7~-------
D---------------------------------------------------------
A--7-7-7-7-7-7-7-7-7-7-7-7--5-5-5-5-5-5-5-5-5-5----------- 
E---------------------------------------------------------

"Preparar a nossa..."
G---------------------------------------------------------
D---------------------------------------------------------      2x
A---------------------------5-5-5-5-5-5-5-5-5-5-5-5------- 
E--5-5-5-5-5-5-5-5-5-5-5-5--------------------------------

"Dinamitar..."
G---------------------------------------------------------
D---------------------------------------------------------       2x     
A--7-7-7-7-7-7-7-7-7-7-7-7--5-5-5-5-5-5-5-5-5-5-5-5------- 
E---------------------------------------------------------

Refrão
G--------------------7-5-4-2-4----------------------------
D---------------------------------------------------------       2x     
A--------------------------------------------------------- 
E---5-5-5-5-5-5-5-5---------------------------------------

"Esta no ar..."
G---------------------------------------------------------
D---------------------------------------------------------       2x     
A--7-7-7-7-7-7-7-7-7-7-7-7--5-5-5-5-5-5-5-5-5-5-5-5------- 
E---------------------------------------------------------

"Oooooooohhhhhhhhhhhhhhhhhhh...."
G--------------------7-5-4-2-4----------------------------
D---------------------------------------------------------       2x     
A--------------------------------------------------------- 
E---5-5-5-5-5-5-5-5---------------------------------------

"Escutar em cada..."
G---------------------------------------------------------
D---------------------------------------------------------       
A--------5--------5---------------------------------------
E---5---------5-------------------------------------------

"Canções de guerra..."
G---------------------------------------------------------
D---------------------------------------------------------       2x     
A--7-7-7-7-7-7-7-7-7-7-7-7--5-5-5-5-5-5-5-5-5-5-5-5------- 
E---------------------------------------------------------

Refrão
G--------------------7-5-4-2-4----------------------------
D---------------------------------------------------------       2x     
A--------------------------------------------------------- 
E---5-5-5-5-5-5-5-5---------------------------------------

"Esta no ar..."
G---------------------------------------------------------
D---------------------------------------------------------       2x     
A--7-7-7-7-7-7-7-7-7-7-7-7--5-5-5-5-5-5-5-5-5-5-5-5------- 
E---------------------------------------------------------

"Ooooooooohhhhhhhhhhhh"
G--------------------7-5-4-2-4----------------------------
D---------------------------------------------------------       2x     
A--------------------------------------------------------- 
E---5-5-5-5-5-5-5-5---------------------------------------

Refrão 
G--------------------7-5-4-2-4----------------------------
D---------------------------------------------------------       2x     
A--------------------------------------------------------- 
E---5-5-5-5-5-5-5-5---------------------------------------

Final 
G---------------------------------------------------------
D---------------------------------------------------------       2x     
A--------------------------------------------------------- 
E---5-5-5-5-5-5-5-5/\-------------------------------------



_______________________________________________________
Contribuição: HAIG  ARTUR  BERBERIAN  JR.(sr.burns@netgo.com.br)

Comentários 0

Composição: Luiz Schiavon / Mike Batt / Paulo Ricardo / Ratinho
Esse não é o compositor? Avise-nos.
publicidade
fechar