Refrão de Bolero

Engenheiros do Hawaii

 Engenheiros do Hawaii
    Bm         F#m        G          A             (acordes p/ acompanhamento)          
G|--------4---------------------0----2-----0-2-0------
D|-----4-------------4-------0---------0-2-------2----
A|--2-------------4-----------------------------------
E|-------------2----------3---------------------------


    Bm          F#m       G             A          
G|------4/6-4-------------------4/6-4---------2-------
D|----4---------------4------0-------------2----------
A|--2--------------4--------------------0-------------
E|--------------2---------3---------------------------


    Bm          F#m       G             A          
G|------4/6-4-------------------4/6-4---------2-------
D|----4---------------4------0-------------2----------
A|--2--------------4--------------------0-------------
E|--------------2---------3---------------------------


Solo: há um solo de baixo no meio da música junto com guitarra

Três vezes:
    Bm         F#m      G           A          
G|---------16--18-------19--18--16--18----------------
D|-----16---------------------------------------------
A|----------------------------------------------------
E|----------------------------------------------------


    Bm         F#m      G           A          
G|---------16--18-------19--18--16--21----------------
D|-----16---------------------------------------------
A|----------------------------------0-----------------
E|----------------------------------------------------


_______________________________________________________
Contribuição: Denis Eduardo(denispslima@ig.com.br)

Comentários 1

  • Evaldo Evaldo: Postado em 11/02/2014 18:56

    Cifra está errada!

Composição: Humberto Gessinger
Esse não é o compositor? Avise-nos.
publicidade
fechar