Seguir Viagem

Engenheiros do Hawaii

 Engenheiros do Hawaii
Solo de Baixo
G|--7-9----7-------------------------------------
D|------10---9-10-8-9----9-----------------7----- 
A|--------------------10---9-10-7-9----7h9---7---
E|----------------------------------10-----------

G|------------------------------------------------
D|------------------------------------------------
A|-5-7---7----------------------------------------
E|-----8---7-8-5-7-3-5-2-3-0-2-0h2h3h5-0----------




_______________________________________________________
Contribuição: Denis Eduardo(denispslima@ig.com.br)
4.582 exibições

Comentários 0

Composição: Gessinger
Esse não é o compositor? Avise-nos.
Consegui tocarAinda não conseguiram tocar essa música. Seja o primeiro!
    Não consegui tocar
    publicidade
    fechar