Surfando karmas & dna

Engenheiros do Hawaii

 Engenheiros do Hawaii
Tom: G
		
Intro: Am Am/G Am/F# Am/F

Am             Am/G         Am/F#             Am/F
  quantas vezes eu estive cara à cara com a pior metade?
Am           Am/G        Am/F#       Am/F
  a lembrança no espelho, a esperança na outra margem
Am                Am/G           Am/F#   Am/F
  quantas vezes a gente sobrevive à hora da verdade?
Am            Am/G       Am/F#         Am/F
  na falta de algo melhor nunca me faltou coragem
  B
  se eu soubesse antes o que sei agora
Bb              C                 (Am C D C) (Am C D C)
  erraria tudo exatamente igual


  Am                C        D               C
e|-----------------------------------------------------------
B|-----------------------------------------------------------
G|----------------------------------------------------------- 
D|-5h7-7-5-7--5-7--5-7-7-7----5h7-7-5-7--5-7--5-------------- 2x
A|----------------------------------------------7-6-5--------
E|-----------------------------------------------------------


Am                 Am/G            Am/F#           Am/F
  tenho vivido um dia por semana... acaba a grana, mês ainda tem
Am           Am/G        Am/F#          Am/F
  sem passado nem futuro, eu vivo um dia de cada vez
Am             Am/G      Am/F#                Am/F
  quantas vezes eu estive cara à cara com a pior metade?
Am                Am/G           Am/F#   Am/F
  quantas vezes a gente sobrevive à hora da verdade?
  B
  se eu soubesse antes o que sei agora
Bb           C                   
  iria embora antes do final


  Am                C        D               C
e|-----------------------------------------------------------
B|-----------------------------------------------------------
G|----------------------------------------------------------- 
D|-5h7-7-5-7--5-7--5-7-7-7----5h7-7-5-7--5-7--5-------------- 
A|----------------------------------------------7-6-5--------
E|-----------------------------------------------------------



   Am                C        D               C
e|-----------------------------------------------------------
B|--------------------------------------------------5b~------
G|--------------------------------------------------5b~------ 
D|-5h7-7-5-7--5-7--5-7-7-7----5h7-7-5-7--5-7--5-7-5---------- 
A|-----------------------------------------------------------
E|-----------------------------------------------------------


 
  Am                C        D               C
e|-----------------------------------------------------------
B|-----------------------------------------------------------
G|----------------------------------------------------------- 
D|-5h7-7-5-7--5-7--5-7-7-7----5h7-7-5-7--5-7--5-------------- 
A|----------------------------------------------7-6-5--------
E|-----------------------------------------------------------


D               Am
  surfando karmas e DNA
C
  não quero ter o que eu não tenho
E
  não tenho medo de errar
D               Am
  surfando karmas e DNA
C
  não quero ser o que eu não sou
E                                 
  eu não sou maior que o mar
D               Am       C   E      (Am C D C) (Am C D C)
  surfando karmas & dna... ô ô ô...

Solinho:


    C       E  
e|---------------3~-------------------
B|--4b5-----4b5-----------------------
G|------5~----------------------------
D|------------------------------------
A|------------------------------------
E|------------------------------------



  Am                C        D               C
e|-----------------------------------------------------------
B|-----------------------------------------------------------
G|----------------------------------------------------------- 
D|-5h7-7-5-7--5-7--5-7-7-7----5h7-7-5-7--5-7--5-------------- 
A|----------------------------------------------7-6-5--------
E|-----------------------------------------------------------



   Am                C        D               C
e|-----------------------------------------------------------
B|--------------------------------------------------5b~------
G|--------------------------------------------------5b~------ 
D|-5h7-7-5-7--5-7--5-7-7-7----5h7-7-5-7--5-7--5-7-5---------- 
A|-----------------------------------------------------------
E|-----------------------------------------------------------


 
  Am                C        D               C
e|-----------------------------------------------------------
B|-----------------------------------------------------------
G|----------------------------------------------------------- 
D|-5h7-7-5-7--5-7--5-7-7-7----5h7-7-5-7--5-7--5-------------- 
A|----------------------------------------------7-6-5--------
E|-----------------------------------------------------------



Am            Am/G      Am/F#           Am/F
  na falta do que fazer, inventei minha liberdade


                D9                Am         C                       E
e|--------------------------------12~--------12~---------12-13-10-12------
B|-15-13----13--15~---15-13----13-----13---------13------------------12~--
G|-------14-----------------14-----------14---------12--------------------
D|------------------------------------------------------------------------
A|------------------------------------------------------------------------
E|------------------------------------------------------------------------


D               Am
  surfando karmas e DNA
C
  não quero ter o que eu não tenho
E
  não tenho medo de errar
D               Am 
  surfando karmas e DNA
C
  não quero ser o que eu não sou
E                              D      Am   C   E       
  eu não sou maior que o maaaaaaar... ô ô... ô ô ô....

(Am C D C) (Am C D C) (Am C D C Am)

Comentários 0

Composição: Humberto Gessinger
Esse não é o compositor? Avise-nos.
Contribuição: Durso Correções: vini »
Exibir acordes »
publicidade
fechar