Tom: D
		
Intro: Bm Bm/A  E/G#  E

A                           G
Cai a noite sobre a minha indecisão
F#m                       B7
Sobrevoa o inferno minha timidez
A                 G
Um telefonema bastaria
F#m                         B7
Passaria a limpo a vida inteira
Eb                 E
Cai a noite sem explicação
D               E
Sem fazer a ligação

G                                      A
na hora da canção em que eles dizem baby
G                    A
Eu não soube o que dizer

Bm Bm/A  E/G#  E
 Ah...vida real!

A                     G
Esperei chegar a hora certa
F#m                       B7
Por acreditar que ela viria
A                      G
Deixei no ar a porta aberta
F#m                B7
No final de cada dia
Eb                E
Cai a noite doce escuridão
D                 E
De madura vai ao chão
G                                     A
Na hora da canção em que eles dizem baby
G                     A
Eu não soube o que dizer
Bm            E
Ah...vida real!(2x todo o refrão)
                          ( A  G  F#m  B7 ) (4x)
Como é que eu troco de canal?

(solo)


        A              G            F#m            B7           A              G
E|------------------------------------------------------------------------------------|
B|------------------------------------------------------------------------------------|
G|------------------------------------------------------------------------------------|
D|7h9-9-7------7-7h9-7---7~---7h9-9-7------7--------------7h9-9-7------7-7h9--11-7~---|
A|---------7h9---------9---------------7h9---9~--7---7~------------7h9----------------|
E|-------------------------------------------------9----------------------------------|


        F#m       B7
E|--------------------|
B|--------------------|
G|--------------------|
D|7h9-9-7-------------|
A|----------7/9---7---|
E|--------------------|


G                                     A
Na hora da canção em que eles dizem baby
G                     A
Eu não soube o que dizer
G                                      A
na hora da canção em que eles dizem samba
G                    A
Eu não soube o que dizer
Bm            E
Ah...vida real! (2x)
   D       A
Tchau!!!

Comentários 8

  • nenen641 nenen641: Postado em 08/03/2014 12:10

    Tom de C toca na versão do estúdio...

  • Wesley Wesley: Postado em 04/02/2014 19:22

    enquanto isso meu primo GAY ouve funk...

  • hikeeee hikeeee: Postado em 14/02/2013 14:32

    Muito Boa !

  • senhorpinga senhorpinga: Postado em 17/10/2012 18:12

    Engenheiros! Salve salve Humberto Gessinger.

  • slashtwo slashtwo: Postado em 30/01/2012 20:28

    éee precisa do solo caaara

  • jeeaanc jeeaanc: Postado em 28/12/2011 23:53

    faltou o solo :s

  • freelipe freelipe: Postado em 12/09/2011 14:07

    Na hora da canção em que eles dizem BEIBE eu não soube o que dizer '-' Disse tudo...

  • dedessa dedessa: Postado em 02/06/2011 13:35

    amo

Composição: Humberto Gessinger / Mike Nolan
Esse não é o compositor? Avise-nos.
Contribuição: federal Correções: Wesley , Fred e mais 7 »
Exibir acordes »
publicidade
fechar