Obs.: Essa linha de baixo contém improvisações que ficam legais se tocadas junto com a versão original.
      Ouça bem a música pra pegar o ritmo certo

Introd.
 
G--------------------------------------------------------------------------------|
D--------------------------------------------------------------------------------|
A--------------------------------------------------------------------------------|
E---7777--5555--4444--0----------------------------------------------------------|

Cai a noite sobre a minha indecisão, sobrevoa o inferno minha timidez...

G--------------------------------------------------------------------------------|
D--------------------------------------------------------------------------------|
A---0--0-0--------------------2--2-2---------------------------------------------|
E------------3—0h2-3-5-2--2-2----------------------------------------------------|

Cai a noite sem explicação, sem fazer a ligação, na hora da canção o que eles dizem baby,
eu não soube o que dizer

G--------------------------------------------------------------------------------|
D-------------------7h9-7--------------------------------------------------------|
A-----6--6-6---7--7-------9\5--5-5/7--7-7\-----------7/12------------------------|
E-------------------------------------------2-2-2--5-------5-5-------------------|

Ahhhh vida real

G--------------------------------------------------------------------------------|
D--------------------------------------------------------------------------------|
A--------------------------------------------------------------------------------|
E---7777777--55--44--0-----------------------------------------------------------|

Repete a mesma seqüência até o solo

Solo:
G--------------------------------------------------------------------------------|
D--------------------------------------------------------------------------------|
A------------7h9-9-9----------5h7--7-7-------------------------------------------|
E----5--5-5-----------7--7-7-----------------------------------------------------|

Repete o refrão

Comentários 0

Composição: Humberto Gessinger / Mike Nolan
Esse não é o compositor? Avise-nos.
Contribuição: Pandur
Consegui tocarAinda não conseguiram tocar essa música. Seja o primeiro!
    Não consegui tocar
    publicidade
    fechar