Layla

Eric Clapton

 Eric Clapton
Tom: A
		
Riff Intro: (2x)


E|--------------------------------------------------------------|
B|--------------------------------------------------------------|
G|----------------7--5--3--------5--------7---------------------|
D|----0h3p0---0---7--5--3--------5--------7---------------------|
A|0h3-------3-----5--3--1---0----3---0----5---------------------|
E|----------------------------3--------3------------------------|


Riff 1: (3x)


E|-------10h13p10------10---13b15--13-12----10------------------|
B|10h13------------13--------------------13---------------------|
G|--------------------------------------------------------------|
D|--------------------------------------------------------------|
A|--------------------------------------------------------------|
E|--------------------------------------------------------------|


Riff 2: (1x)


E|-------10h13p10------10---15b17--15-12------------------------|
B|10h13------------13--------------------13--13b(1/4)-----------|
G|--------------------------------------------------------------|
D|--------------------------------------------------------------|
A|--------------------------------------------------------------|
E|--------------------------------------------------------------|



 OBS: Formato dos acordes de F#5 e A serão assim:   F#5    A
                                                   E|x   E|x   
                                                   B|7   B|2   
                                                   G|6   G|2   
                                                   D|4   D|2  
                                                   A|x   A|0   
                                                   E|x   E|x  


C#5                                  G#5
     What will you do when  you get lonely
C#5          C5     D5         E5
     No one waitin' by your side?
F#5           B5    E                A
You've been running hiding much too long
F#5             B5                 E
You know, it's just your foolish pride.

Refrão:

Riff 1
Lay...........la       got me on my knees
      Riff 1
Layla     begging darling please
      Riff 1                                 Riff 2
Layla     darling won't you ease my worried  mind?

C#5                       G#5
   Tried to give you consolation
C#5         C5        D5       E5
   Your old man won't let you down
F#5     B5      E                 A
Like a fool  I fell in love with you
F#5        B5                 E
Turned my whole world upside down

Refrão:

Riff 1
Lay...........la       got me on my knees
      Riff 1
Layla     begging darling please
      Riff 1                                 Riff 2
Layla     darling won't you ease my worried  mind?

C#5                        G#5
    Make the best of the situation
C#5           C5      D5     E5
    Before  I finally go insane
F#5          B5         E            A
Please don't say we'll never find a way
F#5      B5               E
Tell me all my love's in vain

Refrão:

Riff 1
Lay...........la       got me on my knees
      Riff 1
Layla     begging darling please
      Riff 1                                 Riff 2
Layla     darling won't you ease my worried  mind?


Riff 1
Lay...........la       got me on my knees
      Riff 1
Layla     begging darling please
      Riff 1                                 Riff 2
Layla     darling won't you ease my worried  mind?


Solo

              
Final:

Riff 1: (3x)


E|-------10h13p10------10---13b15--13-12----10------------------|
B|10h13------------13--------------------13---------------------|
G|--------------------------------------------------------------|
D|--------------------------------------------------------------|
A|--------------------------------------------------------------|
E|--------------------------------------------------------------|


Riff 2: (1x)


E|-------10h13p10------10---15b17--15-12------------------------|
B|10h13------------13--------------------13--13b(1/4)-----------|
G|--------------------------------------------------------------|
D|--------------------------------------------------------------|
A|--------------------------------------------------------------|
E|---------------------------------------------------------------|

Comentários 28

  • Naldson Naldson: Postado em 09/11/2014 11:37

    PQP Cifra Club Como uma CLÁSSICO como esse não pode ter vídeo aula? é de f0der em.......

    • carnerojr carnerojr: Postado em 10/11/2014 16:47

      Chega a ser vergonhoso...assino em baixo

  • Ryann Ryann: Postado em 21/05/2014 18:34

    Minha namorada chama layla xD

  • Ricardinho Ricardinho: Postado em 07/04/2014 19:08

    video aula do lepo lepo tem

  • cidio1 cidio1: Postado em 27/01/2014 22:25

    K7

  • cidio1 cidio1: Postado em 27/01/2014 22:24

    Cifraclub...por favor... PARA DE GASTAR DINHEIRO COM VIDEO AULA DO LUAN SANTANA E COMEÇA A FAZER VIDEO AULA DE MUSICA BOA COMO ESSA!!!!!!!!!

  • giksgs giksgs: Postado em 09/12/2013 11:09

    video aulaaaaaaaaa

  • luisandre.muniz luisandre.muniz: Postado em 08/11/2013 14:39

    coloca o vinicius dias na video aula desse musica

  • luisandre.muniz luisandre.muniz: Postado em 08/11/2013 14:37

    com a cifra errada não fica certo msm

  • luisandre.muniz luisandre.muniz: Postado em 08/11/2013 14:34

    video aula!!

Exibindo 10 de 28 comentários Mostrar mais ver todos »
Composição: A. Rand / Ari Claudio Cyrne / Eric Clapton / MC5 / Sandra St. Victor
Esse não é o compositor? Avise-nos.
Contribuição: Enigma Correções: Jorge , Jorge e mais 14 »
Exibir acordes »
publicidade
fechar