Layla

Eric Clapton

 Eric Clapton
Tom: E
		
Versão 1
-======-
Legenda:
h= Hameron
p= pull off
b= beng

  Sempre o Dm deve ser acompanhado por um :

introdução vai ficar :


D|------0-3-0---0-0-|
A|-0-3--------3-----|

e depois

D|-3-3-3--5-5-5--7--------|
A|-1-0-1--3-0-3--5--------|

e segue em frente com a introdção
    

Entre o Dm do final da intro e o Dm do começo vc faz o riff:
A|--0h3----|


Depois entra essa parte:
		 
                  C#m                       G#7   
		What will you do when you get lonely 
		C#m       C9       D9       E   E7    
		With nobody waiting by your side
		F#m    B7      E                 A        E/G# 
		You've been running and hiding much too long, 
		F#m         B7                   E
          	You know it's just your foolish pride.

O resto não deve estar certo porque não corrigi + a parte mais legal da musica é esa que eu corrigi
	
	      A      Dm  Bb9    C9            Dm           
	CHORUS:	Layla,       you got me on my knees.  
		      Dm Bb9     C9               Dm
		Layla,       I'm begging darling please.
		      Dm Bb9     C9            Dm                     
		Layla,       darling won't you ease my worried mind.
                Dm  Bb9  C9  A  C9  C#m 

                AÍ EM BAIXO FICA A MESMA CIFRA DE CIMA
		C#m                       G#7     
		Tried to give you consolation, 
		C#m       C9       D9       E   E7          
		Your old man won't let you down
		F#m    B7      E                 A   E/G# 
		Like a fool, I fell in love with you, 
		F#m         B7                   E
		Turned the whole world upside down


		CHORUS

		C#m                          G#7    
		Let's make the best of the situation 
		C#m      C9       D9     E   E7
		Before I fin'lly go insane.
		F#m          B7        E            A  E/G#
		Please don't say we'll never find a way 
		F#m         B7      E        A
		And tell me all my loves in vain


		CHORUS

 SOLINHO
                             D#m C# H      Bb Ab C#     Bb C# D#m                   
                                /  |      |  |  |      |  |  |
  e||------------------------------------3-5-8-5-8-10-12-10-8-10-8-5-8-5-3-3-1-0-1-0-3-
  B|| ------5-6-5---5-6-5---5-6-8-6-8-10---------------------------------------------||
  G||---5-7-------7-------7----------------------------------------------------------||
  D||-8------------------------------------------------------------------------------||
  A|| -------------------------------------------------------------------------------||
  E||--------------------------------------------------------------------------------||


Guitarra Solo (Eric Clapton)


Riff 1: Entrada (2x)


e|--------------------------------------------------------------------| 
b|--------------------------------------------------------------------| 
g|--------------------------------------------------------------------| 
d|---------7----7------------------------7----------------------------| 
a|---------5----5------8---8---10---10---5----------------------------| 
e|--5--8h----------8---6---6---8----8---------------------------------| 


Riff 2: Refrão (2x)

Layla...


e|-------10h13p10----10---13b-13r-12----10---------------| 
b|-10h13----------13-----------------13------------------| 
g|-------------------------------------------------------| 
d|-------------------------------------------------------| 
a|-------------------------------------------------------| 
e|-------------------------------------------------------|  

                                      1st    2nd 

                                     ------ ------- 
                         *           |      | 
e|-------10h13p10----10---15b-15r-12-----10-----9b~~~~~~-| 
b|-10h13----------13----------------13-------------------| 
g|-------------------------------------------------------| 
d|-------------------------------------------------------| 
a|-------------------------------------------------------| 
e|-------------------------------------------------------| 


Se você quiser fazer as bases, acompanhe as partes de cima.
Escute a musica para pegar o ritmo da entrada e do refrão. 

________________________________________________________________






Versão 2
-======-

obs: x do lado do numero quer dizer que é pra abafar.
obs2: ouvir a musica para pegar o tempo.
Trancrição: Rafael Ueno (Boi,Cefet,Gurça)

Intro


      Dm          Bb     C     Dm
---------------------------------
------------------3-3----5-5-----
---------2--------3-3----5-5-----
---------0---0----3-3----5-5----2
-----0-3-------3--1-1-1--3-3-3--0
---------------------------------



       Dm          Bb     C   Dm
---------------------------------
------------------3-3----5-5-----
---------2--------3-3----5-5-----
---------0---0----3-3----5-5--2--
-----0-3-------3--1-1-1--3-3--0--
---------------------------------



        Dm           Bb     C   Dm
-------------1-1-----------------1
-------------3-3-----3-3----5-5--3
---------2---2-2-----3-3----5-5--2
---------0---0-0-----3-3----5-5--0
-----0-3----------0--1-1-1--3-3---
----------------------------------




----------------------------------
---------5-6-5-6-5-----5-6-5----5-
-------7-----------7---------7----
-----7----------------------------
----------------------------------
----------------------------------




---s--------s----------8--------10-12-10/1210
6-6/8--6-8-8/10---8-10----10-13---------------
----------------------------------------------
----------------------------------------------
----------------------------------------------
----------------------------------------------



---10----------------------------
13----13-10----10----------------
------------12----12-10-9-10-9-9-
---------------------------------
---------------------------------
---------------------------------



----------------------------------------------
--------5-6-5-6-5-----------------------------
-7----7-----------7---7-----------------------
----7---------------7---5-3---5-3-------------
----------------------------5------5-3-5-3-0-3
----------------------------------------------




*1
C#m                           G#7 
What'll you do when you get lonelly

E               C    D    E  E7
no one waiting by your side


--------0---1--
----------3---0
----0/1---1---1
---------------
---------------
---------------


F#m         B7          E           A
You've been runnin'and hidin' much Ing

F#m        B7     E         A
You know it's just foolish pride


Layla...

A   Dm   
----1
-2--3
-2--2
-2---
-----
-----

Refrão




 Dm C  Bb      C       Dm
-1-----------------------------
-3----------------------------2
-2--5--3-3-3x--5-5-5x--2------0
----5--3-3-3x--5-5-5x--0--0-3--
----3--1-1-1x--3-3-3x----------
-------------------------------




 Dm   C  Bb      C     Dm
-1-----------------------------
-3----------------------------2
-2--5--3-3-3x--5-5-5x--2------0
----5--3-3-3x--5-5-5x--0--0-3--
----3--1-1-1x--3-3-3x----------
-------------------------------



 Dm   C  Bb      C     Dm
-1-----------------------------
-3----------------------------2
-2--5--3-3-3x--5-5-5x--2------0
----5--3-3-3x--5-5-5x--0--0-3--
----3--1-1-1x--3-3-3x----------
-------------------------------



 Dm   C  Bb      C       
-1------------------------
-3------------------------
-2--5--3-3-3x--5-5-5x-----
----5--3-3-3x--5-5-5x--0-3        
----3--1-1-1x--3-3-3x-----
-------------------------- 


Depois é 1*(só muda a letra) ,refrão,1*
,refrão,refrão,mude a ultima parte para:


 Dm   C  Bb      C       
-1---------------------1
-3---------------------3
-2--5--3-3-3x--5-5-5x--2
----5--3-3-3x--5-5-5x--0        
----3--1-1-1x--3-3-3x---
------------------------


solo


-5-5---5-5-5---5----------------
-6-6---6-6-6---6----------------
-----7-------7---7-5------------
---------------------7-6-5-5-3--
-------------------------------5
--------------------------------


 (varias vezes)

-8--8--8--8--8--8-10-
-10-10-10-10-10------
---------------------
---------------------
---------------------
---------------------



-------------------------------10-12-10-
-------------------------10-13----------
12b(full)-12-10----10-12----------------
----------------12----------------------
----------------------------------------
----------------------------------------



---10-----------
13----13-10---10
------------12--
----------------
----------------
-----------------



----------------------------
-10-10-11-10----------------
-------------12-10-9-10-7/9-
----------------------------
----------------------------
----------------------------



-----------------------------
--------5-6-5----------------
7-5---7-------7-5------------
----7-------------7-6-5-5-3--
----------------------------5
-----------------------------




-13-10----10-12-12-10----10------------
-------13-------------13----13-10----10
----------------------------------12---
---------------------------------------
---------------------------------------
---------------------------------------



-10----13-10-13-15-15-13----
----10----------------------
-------------------------14-
----------------------------
----------------------------
----------------------------



---12-13-15-13-15-13-15-12-13-10-
15-------------------------------
---------------------------------
---------------------------------
---------------------------------
---------------------------------



-----------------------------
13-10-------13----10---------
------12-10----12----12-10---
---------------------------12
-----------------------------
-----------------------------



-10---------------------
-10-10------------------
-10-9--9/10----5-5------
------------12-----7-5-3
------------------------
------------------------


Refrão 2 vezes
Texto Colunas
Alterar tom ½ tom ½ tom
afinação acordes na letra esconder tabs mais »

Comentários 26

  • Ryann Ryann: Postado em 21/05/2014 18:34

    Minha namorada chama layla xD

  • Ricardinho Ricardinho: Postado em 07/04/2014 19:08

    video aula do lepo lepo tem

  • cidio1 cidio1: Postado em 27/01/2014 22:25

    K7

  • cidio1 cidio1: Postado em 27/01/2014 22:24

    Cifraclub...por favor... PARA DE GASTAR DINHEIRO COM VIDEO AULA DO LUAN SANTANA E COMEÇA A FAZER VIDEO AULA DE MUSICA BOA COMO ESSA!!!!!!!!!

  • giksgs giksgs: Postado em 09/12/2013 11:09

    video aulaaaaaaaaa

  • luisandre.muniz luisandre.muniz: Postado em 08/11/2013 14:39

    coloca o vinicius dias na video aula desse musica

  • luisandre.muniz luisandre.muniz: Postado em 08/11/2013 14:37

    com a cifra errada não fica certo msm

  • luisandre.muniz luisandre.muniz: Postado em 08/11/2013 14:34

    video aula!!

  • luisandre.muniz luisandre.muniz: Postado em 08/11/2013 14:33

    video aula!!!

  • euzivam euzivam: Postado em 08/10/2013 19:05

    O problema do Brasil é q cultura não é considerado um objetivo

Exibindo 10 de 26 comentários Mostrar mais ver todos »
Composição: A. Rand / Ari Claudio Cyrne / Eric Clapton / MC5 / Sandra St. Victor
Esse não é o compositor? Avise-nos.
Contribuição: Enigma Correções: NegoMassa , gleisson e mais 3 »
  1. Domingo de Manhã - Marcos e Belutti Manteve-se 97.773 exibições
  2. Logo Eu - Jorge e Mateus Manteve-se 48.368 exibições
  3. Pra Você - Onze:20 Manteve-se 37.461 exibições
  4. Maus Bocados - Cristiano Araújo Manteve-se 36.706 exibições
  5. Não Vai Voltar - Onze:20 Manteve-se 36.448 exibições
  6. Recaídas - Henrique e Juliano Manteve-se 36.224 exibições
  7. Aonde Quer Que Eu Vá - Os Paralamas do Sucesso Manteve-se 35.210 exibições
  8. É Preciso Saber Viver - Titãs Manteve-se 32.774 exibições
  9. Só Os Loucos Sabem - Charlie Brown Jr. Manteve-se 32.470 exibições
  10. Pais e Filhos - Legião Urbana Manteve-se 30.493 exibições
  1. Jorge e Mateus- Manteve-se 280.647 exibições
  2. Legião Urbana- Manteve-se 216.683 exibições
  3. Charlie Brown Jr.- Manteve-se 156.154 exibições
  4. Fernandinho- Manteve-se 124.823 exibições
  5. Marcos e Belutti- Manteve-se 120.573 exibições
  6. Henrique e Juliano- Manteve-se 116.667 exibições
  7. Bruno e Marrone- Manteve-se 106.899 exibições
  8. Victor e Leo- Manteve-se 100.187 exibições
  9. Onze:20- Manteve-se 96.303 exibições
  10. Thalles Roberto- Manteve-se 93.316 exibições
Exibir acordes »

Cifras e tabs

Fórum Cifra Club

Aprenda

Cifra Club News

Mais Serviços Cifra Club ID

Studio Sol

©1996 - 2014 Cifra Club · o primeiro, maior e mais acessado do Brasil · 336 mil músicas · 6.2 milhões pessoas cadastradas

publicidade
fechar