Pó Pega

Eric e Matheus

 Eric e Matheus Compositor: Jairinho Delgado
Tom: D
		
(intro) D

(part 1)

   r i  p  r i  p  r i  p  r i  p

E|-0-0--0--0-0--0--0-0--0--0-0--0---|
B|-0-0--0--0-0--0--0-0--0--0-0--0---|
G|-0-0--0--0-0--1--0-0--0--0-0--0---|   (2x)
E|-0-0--2--0-0--2--0-0--2--0-0--4---|
B|-0-0--4--0-0--0--0-0--4--0-0--5---|


(solo viola caipira)

E|----12-12----11-11---9-9---7-7---5-5----4-4---2-2----0-0-------|
B|---------------------------------------------------------------|
G|--12------10-------8-----7-----5------3-----1------0-----------| 
E|---------------------------------------------------------------|
B|---------------------------------------------------------------|


D
Nóis é do tipo safado, doido dos corno
                                       A7
Xonado temo solteiro largado pro pau pegá

Nóis arrebenta a portera vendemo toda boiada
                                 D
Gastamo tudo em gelada pro pau pegá
Quando nóis chega chegano nóis qué vê o bicho pulando
                                   A7
Soltou nóis temo garrando pro pau pegá

No batidão arrojado nóis dança bem agarrado
                                    D
Nóis cerca de todo lado pra não escapa

      A7                            D
pó pegá, pó morde, pó beijar, pó pegá
                         A7
vou daqui vem de lá pó pegá
                            D
hoje a noite tá bom e o bailão vai bomba

     A7                            D
pó pegá, pó morde, pó beijar, pó pegá
                         A7
vou daqui vem de lá pó pegá
                            G
hoje a noite tá bom e o bailão vai bomba

(solo) A7   D A7 D A7 D    A7   D

(repete - "Nóis é do tipo ...)

D                      G
Solta a batida que eu quero dança
                 D
Meu coração sertanejo alegrar
                    A7
O som da viola não pode parar
                    D
Não pode para, não pode parar

D                  G
Gosto do embalo desse batidão
                     D
Marca o compasso do meu coração
                   A7
Se a moça linda procura paixão
               D
Pó pegá tô na mão

(refrão)
71.385 exibições

Comentários 2

  • Felipe Felipe: Postado em 21/11/2013 21:19

    ritmoooooooooooooooooo poooorrrrraaaa

  • josé josé: Postado em 28/06/2013 15:39

    ae galera do cifraclub ve se vcs conseguem a cifra e a tablatura de: burrinho pampa.Marco Brasil vlw...

Composição: Jairinho Delgado
Esse não é o compositor? Avise-nos.
Contribuição: Beréu Correções: HugoMgá »
Exibir acordes »
publicidade
fechar