My Immortal

Evanescence

 Evanescence
Tom: A
		
Base de tudo:


      A               C#m                 Aadd9           C#m
E|-----------------------------------------------------------
B|-----------2------------------2----------0---------------2-
G|-------2-------2---------1-----------2-------2-------1-----
D|-----2---2---2---2----2----2-------2---2---2---2---2---2---
A|---0---------------4-------------0---------------4---------
E|-----------------------------------------------------------


C#m:


E|---------------------
B|----------2----------
G|------1--------(1)---
D|----2---2---(2)---(2)
A|--4------------------
E|---------------------


Acordes Pré-Refrão:


      F#m    C#m     E
E|----2-------------0-----
B|----2-------------0-----
G|----2------1------1-----
D|----4------2------2-----
A|----4------4------2-----
E|----2-------------0-----


Acordes Refrão:


     F#m    D    E     C#m       ..but you still have (E and Esus4)
E|----2-----2----0------------              -------------   
B|----2-----3----0------------              -------------    
G|----2-----2----1------1-----              --2-1-------- 
D|----4-----0----2------2-----              ------2------ 
A|----4----------2------4-----              --------2----
E|----2----------0------------              ----------0-- 


Acordes Ponte:


     D    F#m    E    Bm   C#m
E|--2-----2-----0-----------------
B|--3-----2-----0-----3-----------
G|--2-----2-----1-----4----1------
D|--0-----4-----2-----4----2------
A|--------4-----2-----2----4------
E|--------2-----0-----------------


Verso 1:

A                         C#m
I'm so tired of being here
Aadd9                C#m
Suppressed by all my childish fears
A
And if you have to leave
C#m
I wish that you would just leave
Aadd9
'Cause your presence still lingers here
C#m                     F#m
And it won't leave me alone

Pré-Refrão:

C#m                         F#m
These wounds won't seem to heal
C#m                    F#m
This pain is just too real
C#m                         E
There's just too much that time cannot erase

Refrão:

F#m        D         E         C#m
When you cried I'd wipe away all of love your tears
F#m          D          E        C#m
When you'd scream I'd fight away all of love your fears
F#m D         E          C#m
I held your hand through all of love these years
F#m      D      E    (Esus4 lick here)
But you still have
        (main theme)
All of me

Verso 2:

A
You used to captivate me
C#m
By your resonating light
A                       C#m
Now I'm bound by the life you left behind
A
Your face it haunts
C#m
My once pleasant dreams
A
Your voice it chased away
C#m               F#m
All the sanity in me

(Pré-Refrão)

(Refrão)

Ponte:

D              F#m          E                   D
I've tried so hard to tell myself that you're gone
   Bm                     C#m
But though you're still with me
D           E
I've been alone all along

(Refrão)

Comentários 66

  • mayara.hero mayara.hero: Postado em 18/08/2014 08:33

    Gente o arpejo tá errado.
    onde é o dedilhado do LÁ, é casa 2 e não casa 3.

  • doutoretec doutoretec: Postado em 20/06/2014 16:12

    tem gente que fica mudando o tom da música para achar uma cifra mais fácil como eu?kkkk

    • cinthya cinthya: Postado em 31/07/2014 12:09

      Não ._.

  • bela1 bela1: Postado em 31/05/2014 18:18

    Alguém sabe como é o dedilhado no fim refrão??

  • dihego dihego: Postado em 29/04/2014 20:31

    E|----------5--7-5---------5--9---5--
    B|---------5--5-5-5------5---5--5---
    G|-------6-------------6------
    D|-
    A|-
    E|-
    tocar ate o refrão

  • Brian Brian: Postado em 18/04/2014 16:53

    Muiito bom, muiito bom mesmo (y

  • douglas douglas: Postado em 13/04/2014 17:11

    Não to cosigindo pega o dedilhado :(

    • laisemaz laisemaz: Postado em 30/06/2014 11:30

      Olá, vc dedilha as cordas Lá, Ré, Sol e Si nessa sequência nos acordes de A, C#m e A9. Espero ter ajudado :D

    • laisemaz laisemaz: Postado em 30/06/2014 16:34

      Não sequencia não, errei kkkkkkkk, o dedilhado é tocando as cordas: lá, ré, sol, ré, si, ré, sol, ré. Aí vc faz com o A, A9 e C#m, desculpe

  • Sophia Sophia: Postado em 17/02/2014 17:28

    como é depois de F#M?

    • douglas douglas: Postado em 14/04/2014 14:26

      A lá :)

Exibindo 11 de 66 comentários Mostrar mais ver todos »
Composição: Amy Lee / Ben Moody / David Hodges / Domenico Lancellotti / Paulinho Ramos / Prince
Esse não é o compositor? Avise-nos.
Contribuição: dark666 Correções: Matheus , l_e_o_n_a_r_d_o e mais 13 »
Exibir acordes »
publicidade
fechar