Exodus

Exodus

 Exodus
Tom: C
		
Tabbed by: Benjamin Gheysels
Date: 2005-7-15
Album: Bonded by blood

Tuning: standard tuning

| h  hammer-on
| p  pull-off
| ~  vibrato
| .  mute note
| b  bend
| ps pick scrape


Use massive distortion

Riff 1: guitar 1

e|--------------------------------------------------------------------------|
B|--------------------------------------------------------------------------|
G|--------------------------------------------------------------------------|
D|-------------------------------------------------------------------3------|
A|--9p7h9p7h9hold---10p7h9p7h9hold---7-8-9p7h9p7h9hold---10-7-9stop--1hold--|
E|--------------------------------------------------------------------------|



Riff 2 (6') + (1'05") + (2'04"): guitar 1 (guitar 2 plays the chords).
		       	Play this 6 times (play (stop) the second time)

  F#  E F F# F# F#    G E F# F# F#    E F F# F# F#    G E F# F# F#     	

e|--------------------------------------------------------------------------|
B|--------------------------------------------------------------------------|
G|--------------------------------------------------------------------------|
D|--------------------------------------------------------------------3-----|
A|--------------------------------------------------------------------1hold-|
E|----0-1-2p0h2-2-2---3-0-2p0h2-2-2---0-1-2p0h2-2-2---3-0-2-2-2(stop)-------|

	        . .	        . .	        . .	    . .

Riff 3 (42") + (1'40"): first and third time: both guitars,
			second time: just guitar 2 

e|--------------------------------------------------------------------------|
B|--------------------------------------------------------------------------|
G|--------------------------------------------------------------------------|
D|--5----4-5-----5-4-2--4-4-4-4---------------------------------------------|
A|--3----2-3-----5-4-2--4-4-4-4---------------------------------------------|
E|---------------3-2-0--2-2-2-2----3-2-0------------------------------------|

   			  . . .

guitar 1 plays this the second time

e|--------------------------------------------------------------------------|
B|--------------------------------------------------------------------------|
G|--------------------------------------------------------------------------|
D|--5----4-5-----5-4-2------------------------------------------------------|
A|--3----2-3-----5-4-2--9-9-9-9-10-9-7--------------------------------------|
E|---------------3-2-0------------------------------------------------------|


last time: both guitars

e|--------------------------------------------------------------------------|
B|--------------------------------------------------------------------------|
G|--------------------------------------------------------------------------|
D|--5-----4-5--/---9----7-----8-7-5-7-5-2-----------------------------------|
A|--3-----2-3--/---7----5-----8-7-5-7-5-2-----------------------------------|
E|----------------------------6-5-3-5-3-0-----------------------------------|

			      . . . . . .

Riff 4 (2'17"): solo riff 1. Play 8 times

e|--------------------------------------------------------------------------|
B|--------------------------------------------------------------------------|
G|--------------------------------------------------------------------------|
D|--4-4-4--5--4-4-4--2------------------------------------------------------|
A|--4-4-4--5--4-4-4--2------------------------------------------------------|
E|--2-2-2--3--2-2-2--0------------------------------------------------------|

    . . .     . . .

Riff 5 (2'40"): solo riff 2

e|--------------------------------------------------------------------------|
B|--------------------------------------------------------------------------|
G|--------------------------------------------------------------------------|
D|--6-6-6---7---6-6-6---7-6-4---6-6-6---7---6-6-6---2-4-7-------------------|
A|--4-4-4---5---4-4-4---5-4-2---4-4-4---5---4-4-4---0-2-5-------------------|
E|--------------------------------------------------------------------------|

      . .	  . .		  . .	      . .


e|--------------------------------------------------------------------------|
B|--------------------------------------------------------------------------|
G|--------------------------------------------------------------------------|
D|--6-6-6---7---6-6-6---7-5-4---6-6-6---7---6-6-6---7-6-4-------------------|
A|--4-4-4---5---4-4-4---5-4-2---4-4-4---5---4-4-4---5-4-2-------------------|
E|--------------------------------------------------------------------------|

      . .	  . .		  . .	      . .

Riff 6 (2'51"): both guitars

e|--------------------------------------------------------------------------|
B|--------------------------------------------------------------------------|
G|--------------------------------------------------------------------------|
D|--3-3-3---4-----------------2---4-4-4--5------5-5-5---7-6-4---3-----------|
A|--1-1-1---2hold--4-4-4--5-4-2---2-2-2--3hold--5-5-5---5-4-2---1hold-------|
E|-----------------2-2-2--3-2-0-----------------3-3-3-----------------------|

      . .	     . .	    . .		  . .


e|--------------------------------------------------------------------------|
B|--------------------------------------------------------------------------|
G|--------------------------------------------------------------------------|
D|--4--5------5-7-4----------3-----5----------------------------------------|
A|--2--5hold--5-7-4hold------1-----5----------------------------------------|
E|-----3------3-5-2--------0---0-0-3-0-0------------------------------------|

			       . .   . .

Riff 7 (3'03"): both guitars

e|--------------------------------------------------------------------------|
B|--------------------------------------------------------------------------|
G|--------------------------------------------------------------------------|
D|--4---4---4------5-2-4---4--------3-4---4---4------5---4------3-----------|
A|--4---4---4hold--5-2-4---4hold----3-4---4---4hold--5---4stop--1hold-------|
E|--2-0-2-0-2------3-0-2-0-2------0-1-2-0-2-0-2------3-0-2------------------|



Structure:

-riff 1
-riff 2: 6x
-riff 3 (chorus)

-riff 2: 6x
-riff 3 (chorus)

-riff 2: 2x
-riff 4: 8x (=solo 1)
-riff 5 (=solo 2)
-riff 6
-riff 7

-riff 2: 6x
-riff 3 (chorus)

=============================================================================
2.553 exibições

Comentários 0

Consegui tocarAinda não conseguiram tocar essa música. Seja o primeiro!
    Não consegui tocar
    Exibir acordes »
    publicidade
    fechar