More Than Words

Extreme

 Extreme Compositor: Gary Cherone / Nuno Bettencourt
Tom: G
		
Afinação: (Eb)

			Intro: 2X


      G    G/B      Csus9     Am7       C      D  Dsus4
E|-|---3-|-3---|---3---3---|---0--3---|---0--|-2---3-----|  Essa Parte
B|-|---3-|-3-3-|-3-----3-3-|-1----1-1-|-1----|-3---3-----|  da Musica repete
G|-|---0-|-0---|-0-------0-|-0--------|-0----|-2---2-----|  Várias Vezes.
D|-|-----|-----|-----------|----------|------|---0-------|  Ouça Bastante.
A|-|-----|-2---|-3-----3-3-|-0----0---|-3----|-----------|  É tocada até o
E|-|-3---|-----|-----------|----------|------|-------0---| "You Only Knew..."


G  G/B          Csus9        Am7            C       D    Dsus4   G
    Saying "I love you" is not the word I want to hear from you
    G/B              Csus9    Am7            C      D Dsus4   Em
    It's not that I want you not to say, but if you only knew     
 
--------------------------------------------------------------------------
							

     Em   Em/B      Am7        D     G    D/F# 
E|-|-0-0|----0--|-0-0-3-0-|-2-2-2-|-3-3-|-2-2-|    2x
B|-|-0--|--0----|-1---1-1-|-3-3-3-|-3-3-|-3-3-|   Vezes.
G|-|-0--|-------|-0-------|-2-2-2-|-0-0-|-2-2-| 
D|-|-2--|-------|---------|---0-0-|-----|-----| Na Segunda Vez


A|-|-2--|-2-----|-0---0-0-|-------|-----|-----| Toca até o D.
E|-|-0--|-------|---------|-------|-3-3-|-2-2-|



{{------------2ª Vez--------------}}


Em  Em/B Am7     D           G      D/F#    Em
    How easy it would be to show me how you feel
     Em/B   Am7
    More than words
       D              
    Is all you have to...


--------------------------------------------------------------------------- 

 

    G    G/B       C          Cm             G         G/B 
E|-3---|-3---|-0-0--0-0-|-3-3----3-3---|-3-3---3-3-|-3-3-3-3-|
B|-3-3-|-3-3-|-1----1-1-|-4------4-4---|-3-----3-3-|-3-3-3-3-| Termina Aqui 
G|-0---|-0---|-0----0-0-|-5------5-5---|-0-----0-0-|-0-0-0-0-| No "Love Me..."
D|-----|-----|----------|--------------|-----------|---2---2-|
A|-----|-2---|-3----3-3-|-3----3-------|-----------|-2---2---|
E|-3---|-----|----------|------------0-|-3---0-3-2-|---------|


	G      G/B     C
	Do to make it real
             Cm                G            G/B 
    Then you wouldn't have to say that you love me
     
  Am7  D7
E|-0-|-2-|
B|-1-|-1-| 'Cause I'd Already,  Konw
G|-0-|-2-|
D|-2-|-0-| -> Toque Devagar
A|-0-|---|
E|---|---|

       Am7    D7      G
    Cause I'd already know

----------------------------------------------------------------------------


   G  G/B  G  G/B   D/F#          Em    Bm7   C             G/B  Am7
E|--3---3---3---3-|------0-0-0-|-0--0--2-2-|-0-0-0-0--0-0-0--3---0-0-|
B|--3---3---3---3-|------3-3-3-|-0--0--3---|-1---1-1--1---1--3---1---|
G|--0---0---0---0-|------2-2-2-|-0--0--2---|-0---0-0--0---0--0---0---|
D|----------------|------------|-------4---|-------------------------|
A|----2-------2---|------------|----2--2---|-3---3-3--3---3--2---0---|
E|-3------3-------|-0-2--2-2-2-|-0---------|-------------------------|



   Am7      D7                            D7
E|-0-0-|-2--2-2-2-| 2 Vezes.             |-2-|
B|-1-1-|-1--1-1-1-|                      |-1-|
G|-0-0-|-2--2-2-2-| E Na segunda vez, no |-2-|
D|-----|----0-0-0-| "Just By Saying..."  |-0-|
A|-0-0-|----------|  Faça isso ->        |---|
E|-----|----------|  Devagar             |---|


G G/B G G/B    D/F#     Em        Bm7      C
What would you do if my heart was torn in two
                    G/B      Am7
More than words to show you feel
           D7              G
That your love for me is real
G G/B G G/B    D/F#     Em         Bm7    C
What would you say if I took those words away
                   G/B         Am7
Than you couldn't make things new
         D7            
Just by saying I love you

-----------------------------------------------------------------------------


      G    G/B      Csus9     Am7       C      D  Dsus4
E|-|---3-|-3---|---3---3---|---0--3---|---0--|-2---3-----|
B|-|---3-|-3-3-|-3-----3-3-|-1----1-1-|-1----|-3---3-----|
G|-|---0-|-0---|-0-------0-|-0--------|-0----|-2---2-----|
D|-|-----|-----|-----------|----------|------|---0-------|
A|-|-----|-2---|-3-----3-3-|-0----0---|-3----|-----------|



E|-|-3---|-----|-----------|----------|------|-------0---|

Nessa parte faça a introdução.

    G G/B Csus9            Am7   C      D    Dsus4  
    Da ri da la ri ra ri la la ri la,    more than words

E no segundo "Da ri da la...", toque devagar Am7 e D7:


      G    G/B   Csus9    Am7  D7
E|-|---3-|-3---|---3-3---|-0-|-2-|..more than Words.


B|-|---3-|-3-3-|-3---3-3-|-1-|-1-| Csus9                 Am7 - D7
G|-|---0-|-0---|-0---0-0-|-0-|-2-| Da ri da la ri ra     Uhh.... Uhh......
D|-|-----|-----|---------|-2-|-0-|
A|-|-----|-2---|-3---3---|-0-|---| TOC TOC!
E|-|-3---|-----|---------|---|---|


-------------------------------------------------------------------------------

		Aqui é a introdução mesmo Apenas 1 Vez:

G G/B             Csus9     Am7             C       D  Dsus4  G  G/B
    Now that I've tried to talk to you and make you understand
            Csus9           Am7                C         D   Dsus4   
    All you have to do is close your eyes and just reach out your...

-------------------------------------------------------------------------------

    Em
... Hands


     Em   Em/B      Am7        D    
E|-|-0-0|----0--|-0-0-3-0-|-2-2-2-|
B|-|-0--|--0----|-1---1-1-|-3-3-3-|
G|-|-0--|-------|-0-------|-2-2-2-|
D|-|-2--|-------|---------|---0-0-|
A|-|-2--|-2-----|-0---0-0-|-------|
E|-|-0--|-------|---------|-------|


   Em    Am7       D            
    And touch me, hold me close... 

-------------------------------------------------------------------------------
		Essa parte é Batidão!   


Don't Ever Let me go!!!


      G      D/F#     Em
E|-|-3--3--|-2--2-|-0----0-|
B|-|-3--3--|-3--3-|-0----0-| TOC
G|-|-0--0--|-2--2-|-0----0-| TOC
D|-|-0--0--|-0--0-|-2----2-| TOC!
A|-|-2--2--|-0--0-|-2----2-|
E|-|-3--3--|-2--2-|-0----0-|

{-Tocar e Abafar--}

---------------------------------------------------------------------------------
			Depois do Batidão:

              Am7
    More than words

       D7          G7             C
    Is all I ever needed you to show
              Cm               G            Em7
    Then you wouldn't have to say that you love me
          Am7    D7 
    Cause I'd already know...



     Am7             D7         G7         C          Cm         G
E|-|-0-0---3-0-|---2---2-2-|-1-1-1-1-|-0-0---0-0-|------3-3---3-3-|----3-3-|
B|-|-1-1---1-1-|---1---1-1-|-0---0---|-1-----1-1-|-----4------4-4-|----3---|
G|-|-0-----0-0-|---2---2-2-|-0---0---|-0-----0-0-|----5-------5-5-|----0---|
D|-|-2---------|-0-----0-0-|---------|-----------|---5------------|--------|
A|-|-0---0-----|-----------|-----2---|-3-----3-3-|-3--------3-----|--------|
E|-|-0---------|-----------|-3-------|-----------|----------------|-0--3---|



       G        Em7      Am7    D7
E|-|-----3-3--3-3-3-3-|--0---|--2--|--5--|
B|-|-----3-3--3-3-3-3-|--1---|--1--|--4--| Termina no "Already Know!!!"
G|-|-----0-0--0-0-0-0-|--0---|--2--|--5--|
D|-|------------2---2-|--2---|--0--|--0--|
A|-|----------2---2---|--0---|-----|-----|
E|-|-0---3-2----------|------|-----|-----|

                     
		      
			     Toque devagar
--------------------------------------------------------------------------


   G  G/B  G  G/B   D/F#          Em    Bm7   C             G/B  Am7
E|--3---3---3---3-|------0-0-0-|-0--0--2-2-|-0-0-0-0--0-0-0--3---0-0-|
B|--3---3---3---3-|------3-3-3-|-0--0--3---|-1---1-1--1---1--3---1---|
G|--0---0---0---0-|------2-2-2-|-0--0--2---|-0---0-0--0---0--0---0---|
D|----------------|------------|-------4---|-------------------------|
A|----2-------2---|------------|----2--2---|-3---3-3--3---3--2---0---|
E|-3------3-------|-0-2--2-2-2-|-0---------|-------------------------|



   Am7      D7                            D7
E|-0-0-|-2--2-2-2-| 2 Vezes.             |-2-|
B|-1-1-|-1--1-1-1-|                      |-1-|
G|-0-0-|-2--2-2-2-| E Na segunda vez, no |-2-|
D|-----|----0-0-0-| "Just By Saying..."  |-0-|
A|-0-0-|----------|  Faça isso ->        |---|
E|-----|----------|  Devagar             |---|


    G/B             D/F#     Em        Bm      C
   What would you do if my heart was torn in two
                       G/B      Am7
   More than words to show you feel
              D7             G
   That your love for me is real
   G/B             D/F#     Em         Bm7    C
   What would you say if I took those words away
                      G/B         Am7
   Than you couldn't make things new
            D7          
   Just by saying I love...

--------------------------------------------------------------------------

...You!			Introdução

      G    G/B      Csus9     Am7        C     D   Dsus4
E|-|---3-|-3---|---3---3---|---0--3---|---0--|-2---3-----|
B|-|---3-|-3-3-|-3-----3-3-|-1----1-1-|-1----|-3---3-----|
G|-|---0-|-0---|-0-------0-|-0--------|-0----|-2---2-----|
D|-|-----|-----|-----------|----------|------|---0-------|
A|-|-----|-2---|-3-----3-3-|-0----0---|-3----|-----------|

E|-|-3---|-----|-----------|----------|------|-------0---|


    C              Am7             C      D    Dsus4  G   G/B  :
    Da ri da la ri ra ri la la ri la,    more than words       : 3x
     
-------------------------------------------------------------------------
			...E Na terceira Vez:


      G    G/B  Csus9     Csus9      Am7             D Dsus4    G
E|-|---3-|-3---|---3-| -> |-3---3-|-0---0---0-0---0-|--2--3--|-3-3-|
B|-|---3-|-3-3-|-3---| -> |-3---3-|-1---1---1-1---1-|--3--3--|-3-3-| Depois do
G|-|---0-|-0---|-0---| -> |-0---0-|-0---0---0-0---0-|--2--2--|-0-0-| "G" para tudo
D|-|-----|-----|-----| -> |-0---0-|-2---2---2-2---2-|--0--0--|-0-0-| e volta para a 
A|-|-----|-2---|-3---| -> |-3---3-|-0---0---0-0---0-|--------|-2-2-| Batida.
E|-|-3---|-----|-----| -> |-------|-----------------|--------|-3-3-|

			
			  
				        Tocar e Abafar


   G G/B Csus9 Csus9     Am7     C     D Dsus4
E|-|-3-3-3-3--|-3---|---0---3---|---0-|-2---3-|
B|-|-3-3-3----|-3-3-|-1-----1-1-|-1---|-3---3-|
G|-|-0-0-0----|---0-|-0---------|-0---|-2---2-|
D|-|----------|-----|-----------|-----|---0---|
A|-|---2-3----|-3-3-|-0-----0---|-3---|-------|
E|-|-3--------|-----|-----------|-----|-------|     


------------------------------------------------------------------------
				Dedilhado


           G                D/F#                 Dm/F
E|-|---------3-------|----------0-------|------------0--------|
B|-|-----3-------3---|------3-------3---|-------3--------3----|
G|-|---0---0---0---0-|----2---2---2---2-|----2----2----2---2--|
D|-|-----------------|------------------|---------------------|
A|-|-----------------|------------------|---------------------|
E|-|-3---------------|--2---------------|-1-------------------|   



          E4                 Am7                 D
E|-|-----------0-----|-------------0----------|---|
B|-|---------0---0---|----------1-----1-------|---| Deixe Soar o
G|-|-------2-------2-|-------0-----------0----|---| "D" Enquanto faz
D|-|-----2-----------|----2-----------------2-|-0-| o Lickizinho
A|-|---2-------------|-0----------------------|---|
E|-|-0---------------|------------------------|---| 


-------------------------------------------------------------------------
			Lickizinho (Quase Perfeito)

Bom, esse "Solinho" no final, é Todo em cima da Escala de "G Maior".
Nuno Bittencourt começa usando apenas a Mão Esquerda, na Corda Mizinha, 
Depois acelera a velocidade e começa fazer "Two Hands" mais ou menos na 
casa 12. Depois ele sobe toda escala de baixo pra cima e faz um "HArmonic" na
Sétima Casa:


E|-|-5p3p2h3h5---5p3p2h3h5|-t12 5p3p2h3h5-|-t12 5p3p2h3h5-----------------------------|
B|-|----------------------|---------------|---------------5-3-------------------------|
G|-|----------------------|---------------|-------------------5-4-3-------------------|
D|-|----------------------|---------------|-------------------------5-4-3-------------|
A|-|----------------------|---------------|-------------------------------5-3-2-------|
E|-|----------------------|---------------|-------------------------------------5-3-0-|

  Várias Vezes Aumentando    Começe Usar       Tudo Isso Apenas com a mão esquerda
         a Velocidade        "Two Hands"                  Muito Rápido
 Em alta Velocidade

E|-|-(7)-|
B|-|-(7)-| Finaliza com 
G|-|-(7)-| o Harmonico.
D|-|-(7)-|
A|-|-(7)-|
E|-|-(7)-|
-------------------------------------------------------------------------
			Outro Dedilhado Final


Dedilahdo em: G Csus9 G/B Gm/Bb
E|-|-------------3----------3-------3--------3---|
B|-|-----------3---3----------3-------3--------3-|
G|-|---------0-------0---------------------------|
D|-|-------0--------------2-------0--------0-----|
A|-|-----2------------0-3-------2--------1-------|
E|-|-0-3-----------------------------------------| 



       Am7            G
E|-|---------3/5\3-----3--|
B|-|-------1-----------3--|
G|-|-----0-------------0--|
D|-|---2---------------0--|
A|-|-0-----------------2--|
E|-|---------------0---3--|
Texto Colunas
Alterar tom ½ tom ½ tom
afinação acordes na letra esconder tabs mais »

Comentários 3

  • zanettin zanettin: Postado em 10/01/2011 01:23

    parabens ! vc manda MUITO me léo ! fikei impressionado !

  • mattPA' mattPA': Postado em 06/12/2010 15:17

    eh meio complicado esse tapping do final, n soa mto bem nas cordas do meu violão' =/
    tem algum jeito certo de fzer isso?

    • Renan Monteiro Renan Monteiro: Postado em 15/09/2011 21:50

      eu nem faço mano, passo ela pelo dedilhado final, fica legal!

Composição: Adilson Didão / Gary Cherone / Koromilas / Nuno Bettencourt / S. Harris
Esse não é o compositor? Avise-nos.
Contribuição: Renan Monteiro Correções: alexandre , Renan Monteiro e mais 2 »
  1. Domingo de Manhã - Marcos e Belutti Manteve-se 96.264 exibições
  2. Até Você Voltar - Henrique e Juliano Manteve-se 55.457 exibições
  3. Pra Você - Onze:20 Manteve-se 48.991 exibições
  4. Recaídas - Henrique e Juliano Manteve-se 41.756 exibições
  5. Logo Eu - Jorge e Mateus Manteve-se 40.010 exibições
  6. Evidências - Chitãozinho & Xororó Manteve-se 35.919 exibições
  7. Só Os Loucos Sabem - Charlie Brown Jr. Manteve-se 31.813 exibições
  8. Cuida Bem Dela - Henrique e Juliano Manteve-se 31.163 exibições
  9. Pais e Filhos - Legião Urbana Manteve-se 29.531 exibições
  10. Give Me Love - Ed Sheeran Manteve-se 29.506 exibições
  1. Jorge e Mateus- Manteve-se 251.571 exibições
  2. Legião Urbana- Manteve-se 211.240 exibições
  3. Henrique e Juliano- Manteve-se 192.369 exibições
  4. Charlie Brown Jr.- Manteve-se 151.943 exibições
  5. Bruno e Marrone- Manteve-se 133.779 exibições
  6. Fernandinho- Manteve-se 118.729 exibições
  7. Marcos e Belutti- Manteve-se 117.826 exibições
  8. Luan Santana- Manteve-se 111.298 exibições
  9. Thalles Roberto- Manteve-se 93.703 exibições
  10. Victor e Leo- Manteve-se 91.274 exibições
Exibir acordes »

Cifras e tabs

Fórum Cifra Club

Aprenda

Cifra Club News

Mais Serviços Cifra Club ID

Studio Sol

©1996 - 2014 Cifra Club · o primeiro, maior e mais acessado do Brasil · 337 mil músicas · 6.2 milhões pessoas cadastradas

publicidade
fechar