Fagner

Romance no Deserto

118.452 exibições
Tom: G
G                               D/F#
Eu tenho a boca que arde como o sol
                    C  G C G
O rosto e a cabeça quente
                       D/F#
Com Madalena vou-me embora
  C                        G   C G
Agora ninguém vai pegar a gente
                              D/F#
Dei minha viola num pedaço de pão
                          C  G C G
Um esconderijo e uma aguardente
                              D
Mas um dia eu arranjo outra viola
       C                        G  C G
E na viagem vou cantar pra Madalena

G                  D
Não chore não querida esse deserto finda
 Am                         C  G  C G
Tudo aconteceu e eu nem me lembro
                 D
Me abraça minha vida me leva em teu cavalo
   C                     G  C G
E logo no paraíso chegaremos

G                           D/F#
Vejo cidades fantasmas e ruínas
                        C   G C G
À noite escuto o seu lamento
                           D/F#
São pesadelos e aves de rapina
    C                        G   C G
No sol vermelho do meu pensamento
                                       D
Será que eu dei um tiro no cara da cantina
                               C  G
Será que eu mesmo acertei seu peito
                            D
Vem vamos voando minha Madalena
   C                               G  C G
O que passou passou não tem mais jeito
                                 D
Naquela sombra vou amar a minha rede
                           C  G C G
E olhar os solitários viajantes
                              D
Beber cantar e matar a minha sede
     C                     G   C G
Lá longe onde tudo é verdejante

(refrão)
    G                              D
O padre vai rezar uma prece tão antiga
                         C  G C G
Domingo na capela da fazenda
                            D
Brinco de ouro e botas coloridas
     C                       G
Nós dois aprisionados nessa lenda
                                  D/F#
Ouço um trovão e penso que é um tiro
                      C G C G
A noite escura me condena
                             D/F#
Não sei se vivo morro ou deliro
     C                     G
Depressa pega a arma Madalena
                                D
Tem uma luz por trás daquela serra
                            C  G
Mira mas não erra minha pequena
                            D
Anoite é longa e é tanta terra
      C                        G  C G
Poderemos estar mortos noutra cena


E|---77--8-8--55----44--55---4-5-4----5-4-------------------------------|
B|---88--1010-77----55--77---5-7-5----7-5-------------------------------|
G|----------------------------------------------------------------------|
D|----------------------------------------------------------------------|
A|----------------------------------------------------------------------|
E|----------------------------------------------------------------------|


E|----77--8-8---55------12-12-12---10--8--7-----------------------------|
B|----88--1010--77------13-13-13---12--10-8-----------------------------|
G|----------------------------------------------------------------------|
D|----------------------------------------------------------------------|
A|----------------------------------------------------------------------|
E|----------------------------------------------------------------------|
    Composição: Fausto Nilo / Jacques Levy / Túlio MourãoColaboração e revisão:
    • jeguinho do serrado
    • junior
    • FRANÇA
    • django
    • Cezar
    • +1

    Comentários 3

    140 .
    • Andre Andre: Em 19/04/2014 22:29

      não é exatamente assim, mas dá pra tocar, toquem como achar melhor, é só uma dica!!! vlw!!! ;)

    • Andre Andre: Em 19/04/2014 22:27

      Na minha opinião, intro assim

      e |--66--77--6--4-----66--77--6--7--6--7--6----(2x)
      B|--77--99--7--6-----77--99--7--9--7--9--7----(2x)

    • erieltton erieltton: Em 22/02/2013 09:57

      fica bem melhor com o solo.se voceis pudessem colocar

    140 cancelar

    conseguiu tocar?

    • Caio
    • guilherme.pacianotto

    covers

    Grave um vídeo tocando Romance no Deserto e mande pra gente!

    Ex.: http://www.youtube.com/watch?v=0IvSvIwGdwk
    ver covers de outras músicas »
    0:00 / 0:00

    Capítulos

      1 versão de violão dificuldade exibições contribuição e correção
      1 versão de guitarra dificuldade exibições contribuição e correção
      1 versão de cavaco dificuldade exibições contribuição e correção
      1 versão de teclado dificuldade exibições contribuição e correção
      play/pausefechar subir/descer velocidade
      6ª corda E5ª corda A4ª corda D3ª corda G2ª corda B1ª corda E
        acordes
        publicidad
        fechar
        ok