I Don't Care

Fall Out Boy

 Fall Out Boy
Tom: D
		
(intro/ verso)


E|----------------------------------------------|
B|----------------------------------------------|
G|----------------------------------------------|
D|---4--4--4-4-4-4-4-4----4--4--4-4-4-4-4-4-----|
A|-----------0-2-0-2-0-----------0-2-0-2-0------|
E|-2-------------------2--------------------2---|


(riff)

E|----------------------------|
B|----------------------------|
G|----------------------------|
D|----------------------------|
A|-555555444444222222---------|
E|-------------------222222---|


(refrão)

E|--------------------------------------------------------------------|
B|--------------------------------------------------------------------|
G|-----------------7-7-7-7-4-4-4-4-7-7-7-7-4-4-4-4--------------------|
D|-4-4-4-4-7-7-7-7-7-7-7-7-4-4-4-4-7-7-7-7-4-4-4-4---4--4--4-4-4-4-4--|
A|-4-4-4-4-7-7-7-7-5-5-5-5-2-2-2-2-5-5-5-5-2-2-2-2---------0-2-0-2-0--|
E|-2-2-2-2-5-5-5-5---------------------------------2------------------|  (2x)


E|-----|
B|-----|
G|-----|
D|-4~--|
A|-4~--|
E|-2~--|


Say my name and his in the same breath
I dare you to say they taste the same
Let the leaves fall off in the summer
And let December glow in flames

Erase myself and let go
Start it over again in Mexico
These friends, they don't love you
They just love the hotel suites, now

I don't care what you think as long as it's about me
The best of us can find happiness in misery
Said,
I don't care what you think as long as it's about me
The best of us can find happiness in misery

Oh take a chance, let your body get a tolerance
I'm not a chance, put a heat wave in your pants
Pull a breath like another cigarette
Pawnshop heart trading up (trading up)

Oh the oracle in my chest,
Let the guitar scream like a fascist
Sweat it out, shut your mouth
free love on the streets but
in the alley it ain't that cheap, now

I don't care what you think as long as it's about me
The best of us can find happiness in misery
Said,
I don't care what you think as long as it's about me
The best of us can find happiness in misery

Said,
I don't care just what you think
as long as it's about me, you said
I don't care just what you think
as long as it's about me, I said
I don't care (I don't care)
Said, I don't care (I don't care)
Said, I (I) don't (don't) care (care)
I (I) don't (don't) care (no I don't)
I don't care, (I said)
I don't care, (I said)
I (I) don't (don't) care (care)

I don't care what you think as long as it's about me
The best of us can find happiness in misery
Said,
I don't care what you think as long as it's about me
The best of us can find happiness in misery

Comentários 0

Composição: Fall Out Boy / Jair Rocha
Esse não é o compositor? Avise-nos.
Contribuição: Anderson Correções: Taynan e mais 1 »
Exibir acordes »
publicidade
fechar