The Drug In Me Is You

Falling In Reverse

 Falling In Reverse
Intro/Riff

F|-----------------------------------------------|
C|-----------------------------------------------|
G|-------5----1-1----3--------1----0-0-0-0-0-----|
C|--0--------------------0-----------------------|

F|-----------------------------------------------|
C|-----------------------------------------------|
G|--------------------------------3--------------|
C|-0000000077777777888888883333232---------------|

F|-----------------------------------------------|
C|-----------------------------------------------|
G|-----------------------------------------------|
C|-00000000222222228888888877--55----------------|

Verse 1

F|--------------------------------------------------------------------|
C|--------------------------------------------------------------------|
G|-------8-7-8-7----------8-7-8-7----------8-7-8-7--------------------|
C|-0-------------10-0-------------10-8-------------8-7-----777-5-3-2--|

F|--------------------------------------------------------------------|
C|--------------------------------------------------------------------|
G|-------8-7-8-7----------8-7-8-7----------8-7-8-7--------------------|
C|-0-------------10-0-------------10-8-------------8-7----------------|

F|--------------------------------------------------------------------|
C|--------------------------------------------------------------------|
G|-------8-7-8-7----------8-7-8-7----------8-7-8-7--------------------|
C|-0-------------10-0-------------10-8-------------8-7-----777-5-3-2--|

F|--------------------------------------------------------------------|
C|--------------------------------------------------------------------|
G|-------8-7-8-7----------8-7-8-7-------------------------------------|
C|-0-------------10-0-------------10-8-8-8-8-8-8-8-8-7----------------|

Chorus 1

F|---------------------------------------------------------------------------|
C|---------------------------------------------------------------------------|
G|-----------------------------------------------------------335577----------|
C|-3333333333333333000000000000000077777777777777778888888888----------------|

F|---------------------------------------------------------------------------|
C|---------------------------------------------------------------------------|
G|-----------------------------------------------------------335577----------|
C|-3333333333333333000000000000000077777777777777778888888888----------------|

Riff

F|-----------------------------------------------|
C|-----------------------------------------------|
G|-----------------------------------------------|
C|-00000000777777778888888833332-----------------|

Verse 2

F|--------------------------------------------------------------------|
C|--------------------------------------------------------------------|
G|-------8-7-8-7----------8-7-8-7----------8-7-8-7--------------------|
C|-0-------------10-0-------------10-8-------------8-7-----777-5-3-2--|

F|--------------------------------------------------------------------|
C|--------------------------------------------------------------------|
G|-------8-7-8-7----------8-7-8-7----------8-7-8-7--------------------|
C|-0-------------10-0-------------10-8-------------8-7----------------|

F|--------------------------------------------------------------------|
C|--------------------------------------------------------------------|
G|-------8-7-8-7----------8-7-8-7----------8-7-8-7--------------------|
C|-0-------------10-00-0-0--------10-8-------------8-77-7-7-77-5-3-2--|

F|--------------------------------------------------------------------|
C|--------------------------------------------------------------------|
G|-------8-7-8-7----------8-7-8-7----------8-7-8-7--------------------|
C|-0-------------10-00-0-0--------10-8-------------8-7----------------|

Chorus 2

     Same as Chorus 1

Solo

F|-----------------------------------------------|
C|-----------------------------------------------|
G|-----------------------------------------------|
C|-00000000222222228888888833333-2---------------|

F|-----------------------------------------------|
C|-----------------------------------------------|
G|-----------------------------------------------|
C|-00000000222222228888888877--55----------------|

Bridge

F|-------------------------------------------------------------------|
C|-------------------------------------------------------------------|
G|-------------------------------------------------------------------|
C|-00------77------88------55----7/00------77------88------55--77----|

Chorus 3

     Same as Chorus 1

Outro/Riff

F|-----------------------------------------------|
C|-----------------------------------------------|
G|--------------------------------3--------------|
C|-0000000077777777888888883333232---------------|

F|-----------------------------------------------|
C|-----------------------------------------------|
G|--------------------------------3--------------|
C|-0000000022222222888888883333232-0-------------|

Comentários 0

Composição: Mitch James / Peter Ratzenbeck / Richard Singh
Esse não é o compositor? Avise-nos.
Contribuição: helio96
publicidade
fechar