Cura-me

Fernanda Brum

 Fernanda Brum Compositor: Fernanda Brum
Tom: D
		
Intro:  Bm7  A  G-  D/F#  Em7  F#m7  Bm7
        G  A  E4  E

Bm                   G
Tanta amargura escondi
Bm                 G
O medo de não acertar
Bm                    G
Sonhos coloridos destruí
Bm                         G
Que eu não quero mais lembrar
Em
Não vou mais chorar
       A4   A
Foi o que decidi
        Em7
Não vou mais sofrer
       G       A
Pra que viver assim
Bm                           G
Com imagens da infância, comecei a chorar
Bm
Caí na caixa das lembranças
G                 A
Lembrei do Teu olhar
Bm
Enchi meus olhos de esperança
G
Comecei a cantar
Bm
Entrei de vez naquela dança
      Em7     A
Pra nunca mais voltar

Bm                G
Cura-me em minhas lembranças
Bm                 G
Cura o meu altar
Bm	          G
Cura-me, sou Tua criança
Em7         A           Bm7
Cura-me, cura-me, cura-me
G            A               E4 E
Cura-me, Senhor Jesus
G           A         Bm7
Cura-me, cura-me, cura-me
G           A       E4  E
Cura-me, Senhor Jesus

Solo:  G  A  Bm  G  A  E


E|--------------------------------|---------------------------------------------|
B|------------------15-15~--------|--15-15--17-17--19-19--17b-17b---------------|
G|-14/16-16--18-18----------------|---------------------------------------------|
D|--------------------------------|---------------------------------------------|
A|--------------------------------|---------------------------------------------|
E|--------------------------------|---------------------------------------------|



E|--------------------------------|---------------------------------------------|
B|-15--15------17b-17b-17b-15--17-|--17-15--17-15--17-15--17-15--17-15--17-15---|
G|---16--16b-----------------16---|-------16-----16-----16-----16-----16-----16-|
D|--------------------------------|---------------------------------------------|
A|--------------------------------|---------------------------------------------|
E|--------------------------------|---------------------------------------------|



E|-18b-18b-18b-17b----------------|---------------------------------------------|
B|-----------------17/19b---------|--17-19-17b--15------------------------------|
G|--------------------------------|----------------16-16b~~---------------------|
D|--------------------------------|---------------------------------------------|
A|--------------------------------|---------------------------------------------|
E|--------------------------------|---------------------------------------------|
Texto Colunas
Alterar tom ½ tom ½ tom
afinação acordes na letra esconder tabs mais »

Comentários 23

  • Wagner Wagner: Postado em 04/05/2013 13:41

    Aí, amo esse site. Só falta mesmo colocar o ritmo para violão, se for possível agradeço! ;)

  • alinecordeiro alinecordeiro: Postado em 13/09/2012 11:11

    muito linda...

  • alinebxm alinebxm: Postado em 20/06/2012 10:06

    Amei essa cifra !

  • muka100 muka100: Postado em 13/03/2012 13:16

    lindo d+

  • Guell Guell: Postado em 23/12/2011 14:46

    Muito lindo esse louvor... achei que era mais difícil de tocar mas não!!!

  • papdance papdance: Postado em 23/12/2011 10:01

    I LIKED VERY MUCH,GOD BLESS YOU FERNANDA BRUM......

  • emili10 emili10: Postado em 18/12/2011 12:03

    Esse Hino é maravilhoso para tocar o coração! amem!

  • xitra xitra: Postado em 07/10/2011 21:44

    sou fanatico por música gospel todas elas.okk!

  • xitra xitra: Postado em 07/10/2011 21:43

    boa noite a toda galera do cifra clube tchau.

  • xitra xitra: Postado em 07/10/2011 21:39

    é uma beleza de música,gostei.

Exibindo 10 de 23 comentários Mostrar mais ver todos »
Composição: Fernanda Brum
Esse não é o compositor? Avise-nos.
Contribuição: fabianovalerio Correções: Willdyson , Gilber_KeyBoard e mais 4 »
  1. Domingo de Manhã - Marcos e Belutti Manteve-se 100.173 exibições
  2. Maus Bocados - Cristiano Araújo Manteve-se 43.673 exibições
  3. Recaídas - Henrique e Juliano Manteve-se 41.236 exibições
  4. Logo Eu - Jorge e Mateus Manteve-se 39.489 exibições
  5. Pra Você - Onze:20 Manteve-se 36.114 exibições
  6. Mulher - Projota Manteve-se 31.344 exibições
  7. Só Os Loucos Sabem - Charlie Brown Jr. Manteve-se 29.845 exibições
  8. Calma - Jorge e Mateus Manteve-se 25.824 exibições
  9. Não Vai Voltar - Onze:20 Manteve-se 25.127 exibições
  10. Pais e Filhos - Legião Urbana Manteve-se 24.975 exibições
  1. Jorge e Mateus- Manteve-se 269.046 exibições
  2. Legião Urbana- Manteve-se 203.953 exibições
  3. Charlie Brown Jr.- Manteve-se 145.990 exibições
  4. Marcos e Belutti- Manteve-se 124.499 exibições
  5. Fernandinho- Manteve-se 117.639 exibições
  6. Henrique e Juliano- Manteve-se 103.664 exibições
  7. Bruno e Marrone- Manteve-se 100.315 exibições
  8. Luan Santana- Manteve-se 90.472 exibições
  9. Thalles Roberto- Manteve-se 89.131 exibições
  10. Victor e Leo- Manteve-se 85.932 exibições
Exibir acordes »

Cifras e tabs

Fórum Cifra Club

Aprenda

Cifra Club News

Mais Serviços Cifra Club ID

Studio Sol

©1996 - 2014 Cifra Club · o primeiro, maior e mais acessado do Brasil · 335 mil músicas · 6.1 milhões pessoas cadastradas

publicidade
fechar