Profetizando às Nações

Fernanda Brum

 Fernanda Brum
Tom: D
		

Intro 2x: Bm9  Bm9  A9  A9  Bm9  Bm9
E|--------------------------------|
B|--------------------------------|
G|--------------9-9-9-------------|
D|--12-12-12-11-------12----------|
A|--------------------------------|
E|--------------------------------|



E|--------------------------------|
B|--------------------------------|
G|--11-9--------------------------|
D|-------12-11-9------------------|
A|----------------9h-11-11-12-12--|
E|--------------------------------|



E|--------------------------------|
B|--------------------------------|
G|--11-9--------------------------|
D|-------12-11-9------------------|
A|----------------9h-11-11-12-9---|
E|--------------------------------|


     Bm9            		        G	A	B	Bm
O dia chegou, um estrondo se ouviu, mais uma trombeta soou, profetas se
      	  	           G             A     B        Em9
levantam com autoridade, dizendo assim diz o Senhor: profetas que não
	  G9	         Em9		       Bm9	      Em9
vendem o seu ministério e nem negociam a sua unção, o seu compromisso
     G9			Em9               F#9
é pregar o evangelho, o arrependimento à todas as nações.

Refrão:
   B9           F#9         E9	            G     A9       B9
Ecoa do Sul, ecoa do Norte, de Leste a Oeste a voz do Senhor, derrete os
            F#m9	      Em9		       G9          A9
montes, estremece a terra, ressuscita os mortos, profetizando vida as
    B9	    Em9      F#m9      Bm9
nações, profetizando vida as nações.

Intervalo 2x: Bm9  A9  A9  Bm9  Bm9
58.067 exibições

Comentários 2

  • Kbção Kbção: Postado em 13/07/2013 12:36

    Esses riffs no início são de que trecho? É da versão ao vivo?

  • Kbção Kbção: Postado em 13/07/2013 12:19

    Esses riffs no início são de que trecho?

Composição: Fernanda Brum
Esse não é o compositor? Avise-nos.
Contribuição: Zordenoni Correções: apalmieri e mais 2 »
Exibir acordes »
publicidade
fechar