Fernanda Brum

Vem Sobre Mim

88.607 exibições
Tom: C
Intro: F  G  Am  G  F  G  Am  //  F  G  Am  G  F  C

Intro:


E|-------------------------------------------------------------------------|
B|-------------------------------------------------3-----------------------|
G|-----------2-----------------4----------------5-----5--4--2--------------|
D|-----2--3------3-------2--3-----3------2--3------------------5--3--2-----|
A|-----------------------------------0-------------------------------------|
E|-1-----------------3-----------------------------------------------------|


E|-------------------------------------------------------------------------|
B|--------------------------------------------------------3----------------|
G|-----------2-----------------4----------------5--4--2--------------------|
D|-----2--3------3-------2--3-----3------2--3------------------------------|
A|-----------------------------------0-------------------------------------|
E|-1-----------------3-----------------------------------------------------|


E|-------------------------------------------------------------------------|
B|--------------------------------------------------3----------------------|
G|-----------2-----------------4-----------------5-----5--4--2-------------|
D|-----2--3------3-------2--3-----3------2--3-------------------5--3--2----|
A|-----------------------------------0-------------------------------------|
E|-1-----------------3-----------------------------------------------------|


E|-------------------------------------------------------------------------|
B|------------------------------------1------------------------------------|
G|-----------2-----------------4------0------------------------------------|
D|-----2--3------3-------2--3-----3---2------------------------------------|
A|------------------------------------3------------------------------------|
E|-1-----------------3-----------------------------------------------------|


C9                               Am
Espírito Santo toma minha mente  Espírito Santo toma o meu coração   
F              Dm7                 G7/4      G
Espírito Santo toma o meu ventre   Vem sobre mim   
C9                              Am
Espírito Santo toma minha casa  Espírito Santo toma minha família   
F               Dm7                       G7/4   F
Espírito Santo toma os meus filhos  Vem sobre mim 

Refrão:

C                                     F7+
Eu sou o que a bíblia diz que eu sou  Eu tenho o que a bíblia diz que eu tenho   
Dm     Am                                G7/4     F
Eu vou onde a bíblia diz que eu vou  Vem sobre mim 
C                                     F7+
Eu sou o que a bíblia diz que eu sou  Eu tenho o que a bíblia diz que eu tenho   
Dm     Am                                G7/4     Dm   (*convenção)
Eu vou onde a bíblia diz que eu vou  Vem sobre mim 

Intro:   F    G    Am    G    F     G     C


E|-------------------------------------------------------------------------|
B|-------------------------------------------------3-----------------------|
G|-----------2-----------------4----------------5-----5--4--2--------------|
D|-----2--3------3-------2--3-----3------2--3------------------5--3--2-----|
A|-----------------------------------0-------------------------------------|
E|-1-----------------3-----------------------------------------------------|


E|-------------------------------------------------------------------------|
B|------------------------------------------1------------------------------|
G|-----------2------------------------------0------------------------------|
D|-----2--3------3-------5------------------2------------------------------|
A|--------------------------7\5--3p0--------3------------------------------|
E|-1-----------------3-----------------3-----------------------------------|


E|-------------------------------------------------------------------------|
B|--------------------------------------------------3----------------------|
G|-----------2-----------------4-----------------5-----5--4--2-------------|
D|-----2--3------3-------2--3-----3------2--3-------------------5--3--2----|
A|-----------------------------------0-------------------------------------|
E|-1-----------------3-----------------------------------------------------|


E|------------------------------------7-----7--------8---------------------|
B|---------------------------------------6-----6--5------------------------|
G|-----------2-----------------4-------------------------------------------|
D|-----2--3------3-------2--3------3---------------------------------------|
A|-------------------------------------------------------------------------|
E|-1-----------------3-----------------------------------------------------|


E|-------------------------------------------------------------------------|
B|--------------------------------------------------3----------------------|
G|-----------2-----------------4-----------------5-----5--4--2-------------|
D|-----2--3------3-------2--3-----3------2--3-------------------5--3--2----|
A|-----------------------------------0-------------------------------------|
E|-1-----------------3-----------------------------------------------------|


E|-------------------------------------------------------------------------|
B|---------------------------------------1---------------------------------|
G|-----------2--------4------------------0---------------------------------|
D|-----2--3------3-------7\5-------------2---------------------------------|
A|----------------------------5p3--------3---------------------------------|
E|-1-----------------3---------------3-------------------------------------|


C9                               Am
Espírito Santo toma minha mente  Espírito Santo toma o meu coração   
F              Dm7                 G7/4      F
Espírito Santo toma o meu ventre   Vem sobre mim   
C9                              Am
Espírito Santo toma minha casa  Espírito Santo toma minha família   
F               Dm7                       G7/4   F
Espírito Santo toma os meus filhos  Vem sobre mim 

Refrão:
C                                     F7+
Eu sou o que a bíblia diz que eu sou  Eu tenho o que a bíblia diz que eu tenho   
Dm     Am                                G7/4     F
Eu vou onde a bíblia diz que eu vou  Vem sobre mim 
C                                     F7+
Eu sou o que a bíblia diz que eu sou  Eu tenho o que a bíblia diz que eu tenho   
Dm     Am                                G
Eu vou onde a bíblia diz que eu vou  Vem sobre mim 

Instrumental: F    G   Am   G     F    G    Am    G    F    G    Am    Dm   G7/4
Convenção: F    G   Am   G     F    G    Am    G    F    G    Am    Dm   G7/4

Refrão:
C                                     F7+
Eu sou o que a bíblia diz que eu sou  Eu tenho o que a bíblia diz que eu tenho   
Dm     Am                                G7/4     F   G   Am   G/B
Eu vou onde a bíblia diz que eu vou  Vem sobre mim 
C                                     F7+
Eu sou o que a bíblia diz que eu sou  Eu tenho o que a bíblia diz que eu tenho   
Dm     Am                                G7/4   G
Eu vou onde a bíblia diz que eu vou  Vem sobre mim
    Composição: Fernanda BrumColaboração e revisão:
    • Alê
    • kesleyalfa
    • Theu
    • Ricardo

    Comentários 0

    140 .
    140 cancelar

    conseguiu tocar?

    • Larissa
    • Vitória
    • Witalo
    • rebeca ellizandra gomes de lima
    • Arthur
    • John
    • Rayssa
    • •••

    covers

    Grave um vídeo tocando Vem Sobre Mim e mande pra gente!

    Ex.: http://www.youtube.com/watch?v=0IvSvIwGdwk
    ver covers de outras músicas »
    0:00 / 0:00

    Capítulos

      play/pausefechar subir/descer velocidade
      6ª corda E5ª corda A4ª corda D3ª corda G2ª corda B1ª corda E
        acordes
        publicidad
        fechar
        ok