Tom: C
		
Intro:  Am     F     C     G


E|--------------------------------------------|
B|-----5----6----------6--5-------5-3------3--|
G|---5---------5------------5---------4-------|
D|-7-----7--------7-----------5---------5-----| (6x)
A|--------------------------------------------|
E|--------------------------------------------|


  PM..................

E|--------------------------------------------|
B|--13--10-12-13-----10-12-13-----10-12-13-10-|
G|---------------10-----------9---------------|
D|--------------------------------------------| (2x)
A|--------------------------------------------|
E|--------------------------------------------|


Am       F          C        G
   Há um rio cujas águas são limpas.
Am       F          C         G
   Há um rio cujas fontes não cessam.
Am       F        C        G       Am F C G
   Há um rio que corre do Trono de Deus.
Am       F          C           G
   Há um rio que desceu de Sua Glória.
Am       F          C        G
   Há um rio que morreu numa cruz.
Am        F              c     G      Am F C G
   E esse rio ao terceiro dia ressucitou!

Refrão:
         Am F C G      Am F C G
Eu vou mergulhar nos Teus rios .
         Am F C G      Am F C G
Eu vou mergulhar nas Suas fontes .

    Am       F        C          G          Am     F        C  G
Me limpa, me sara, me cura, transforma, restaura o meu coração
    Am       F        C        G           Am      F        C  G
Me limpa, me sara, me cura, restaura, transforma o meu coração
    Am       F        C        G           Am      F        C  G
Me limpa, me sara, me cura, restaura, transforma o meu coração
    Am       F        C          G          Am     F        C  G
Me limpa, me sara, me cura, transforma, restaura o meu coração
926 exibições

Comentários 0

Composição: Fernandinho
Esse não é o compositor? Avise-nos.
Contribuição: terasaka12
Consegui tocarAinda não conseguiram tocar essa música. Seja o primeiro!
    Não consegui tocar
    Exibir acordes »
    publicidade
    fechar