Céu, Lindo Céu

Fernandinho

 Fernandinho
Tom: A#
		
Intro: G  Bb  Am  C


E|-10-10-10-10-10-10|-10-10-10-8--6------|-10-10-10-8--6------|-10-10-10-10-10-10-10-10-10-|
B|-8--8--8--8--8--8-|----------------8-8~|----------------8-8~|----------8--8--8--8--8--8--|
G|------------------|--------------------|--------------------|----------------------------|  (2x)
D|------------------|--------------------|--------------------|----------------------------|
A|------------------|--------------------|--------------------|----------------------------|
E|------------------|--------------------|--------------------|----------------------------|



      Em      D       C
Este mundo jamais poderá me afastar
      Em                        D
Dos tesouros celestiais que eu vou receber
     Em         D             C
Minha firme esperança esta no meu novo lar
       Em                       D
Sou herdeiro com Cristo, vou com ele morar

G               Cm        G   D/F#
Céu Lindo céu, céu lindo céu
      Em                     D
Há mansões celestiais todas feitas por Deus
 G             Cm   G
Céu Lindo céu, céu, lindo céu
D/F#       Em
Eu vou pro céu, lindo céu,
                     D              C
Com Cristo eu vou morar num lindo céu

     Em        D        C
Ao passar pelo rio nada mais temerei,
     Em                     D
Nem pecado nem tristeza eu ali sofrerei,
       Em           D                 C
Ó Que glória tão sublime, quando eu subir para os céus
     Em                 D
Cantarei a linda história do Cordeiro
G              Cm        G   D/F#
Céu Lindo céu, céu lindo céu
      Em                     D
Há mansões celestiais todas feitas por Deus
 G             Cm   G
Céu Lindo céu, céu, lindo céu
D/F#       Em
Eu vou pro céu, lindo céu,
                     D
Com Cristo eu vou morar num lindo céu

Solo: Bb  Db  Cm  Eb

        Bb  Db  Cm  D
E|-13-13-13-13-13-13-|-13-13-13-11--9--------|-13-13-13-11--9--------|--------------------9-9-9----------|
B|-11-11-11-11-11-11-|-----------------11-11~|-----------------11-11~|--9-9-9-11-11-11-11-------11-11-11-|
G|-------------------|-----------------------|-----------------------|-----------------------------------|
D|-------------------|-----------------------|-----------------------|-----------------------------------|
A|-------------------|-----------------------|-----------------------|-----------------------------------|
E|-------------------|-----------------------|-----------------------|-----------------------------------|



E|-----|13-13-13-13-13-13-|-13-13-13-11--9--------|--13-13-13-11--9--------|--------10-10-10-10-10-|
B|-9-9-|11-11-11-11-11-11-|-----------------11-11~|------------------11-11~|-9-9-9-----------------|
G|-----|------------------|-----------------------|------------------------|-----------------------|
D|-----|------------------|-----------------------|------------------------|-----------------------|
A|-----|------------------|-----------------------|------------------------|-----------------------|
E|-----|------------------|-----------------------|------------------------|-----------------------|



G              Cm        G   D/F#
Céu Lindo céu, céu lindo céu
      Em                     D
Há mansões celestiais todas feitas por Deus
 F            D#           G
Céu Lindo céu, céu, lindo céu
D/F#       Em
Eu vou pro céu, lindo céu,
                     D            Em
Com Cristo eu vou morar num lindo céu
Acompanhamento:

E|-------------------10-10-10-10-10-10-|
B|-12-12-12-12-12-12-------------------|
G|-------------------------------------|
D|-------------------------------------|
A|-------------------------------------|
E|-------------------------------------|



        D/F#           G
Eu vou morar no lindo céu
        D/F#
Eu vou morar no lindo céu

Ministração: Em  D/F#  C  D

Final: G
40.877 exibições

Comentários 0

Composição: Sabe quem é o compositor? Envie pra gente. Contribuição: lucianonano Correções: Hunnaeus , jiin_karls e mais 2 »
Exibir acordes »
publicidade
fechar