Chorem

Fernandinho

 Fernandinho
Tom: C
		
(intro)

    Dm                         Am
E|------------------------------------------------------------|
B|-10----10----10---------------10----10----10----------------|
G|----12----12----12--9--7/9-9-----12----12----12--9--12\9\7\5|
D|------------------------------------------------------------|
A|------------------------------------------------------------|
E|------------------------------------------------------------|


          Dm       Am
Livra Teu povo  Senhor
         Dm            Am
Livra Teu povo  Pai de Amor
   G/B              Am                 G      Em
Não deixes cair a vergonha sobre a Tua igreja

          Dm          Am
Secou a alegria dos homens
          Dm         Am
Se foi o alimento da terra
G/B         Am              G     Em
Volta e restitui  ó Pai de Amor!

            Am F/C    G
Chorem os ministros de Deus
        Am   F/C    G
Os sacerdotes do Senhor
Dm                  Am
Toca a trombeta em Sião
              F/C          G
Daí voz de jejum e de orações

(ministração) Am  F/C  G  Em
              Am  F/C  G
              Dm   F    G

             Am F/C    G
Chorem os ministros de Deus
        Am   F/C    G
Os sacerdotes do Senhor
Dm                  Am
Toca a trombeta em Sião
              F/C          G
Daí voz de jejum e de orações
(solo final) F/C  Am  F/C  Am


E|-----------------------------------|
B|-10----8----10----8----10----8-----| (2x)
G|----10---10----10---10----10---9---|
D|-----------------------------------|
A|-----------------------------------|
E|-----------------------------------|



E|-----------------------------------|
B|-10----8----10----8----10----8-----| (2x)
G|----10---10----10---10----10---9---|
D|-----------------------------------|
A|-----------------------------------|
E|-----------------------------------|
Texto Colunas
Alterar tom ½ tom ½ tom
afinação acordes na letra esconder tabs mais »
122.010 exibições

Comentários (2)

  • Michael Michael: Postado em 08/07/2013 17:04

    gente a cifra ta errada em algumas parte tipo no começo nao é F/C é Dm .essa é a unicaparte errada .ó tudo que tiver F/C troca por Dm-norefr

  • tt_tecnology tt_tecnology: Postado em 26/04/2012 23:58

    Muito bom, consegui tocar ela em um estilo finger style.

Composição: Sabe quem é o compositor? Envie pra gente. Contribuição: Gleyton Matheus Correções: MichaelXbaixista , matheus e mais 5 »
  1. Tudo Que Você Quiser - Luan Santana Manteve-se 6.004 exibições
  2. Lepo Lepo - Psirico Manteve-se 4.431 exibições
  3. Mozão - Lucas Lucco Manteve-se 4.139 exibições
  4. Logo Eu - Jorge e Mateus Manteve-se 3.880 exibições
  5. Gaveta - Fernando e Sorocaba Manteve-se 3.331 exibições
  6. Pra Você - Onze:20 Manteve-se 3.309 exibições
  7. Só Os Loucos Sabem - Charlie Brown Jr. Manteve-se 3.010 exibições
  8. Tempo Perdido - Legião Urbana Manteve-se 2.530 exibições
  9. Fui Fiel - Gusttavo Lima Manteve-se 2.507 exibições
  10. Na Linha do Tempo - Victor e Leo Manteve-se 2.140 exibições
  1. Jorge e Mateus- Manteve-se 23.268 exibições
  2. Legião Urbana- Manteve-se 20.589 exibições
  3. Luan Santana- Manteve-se 17.386 exibições
  4. Charlie Brown Jr.- Manteve-se 17.172 exibições
  5. Fernandinho- Manteve-se 14.617 exibições
  6. Thalles Roberto- Manteve-se 11.189 exibições
  7. Católicas- Manteve-se 11.033 exibições
  8. Gusttavo Lima- Manteve-se 10.465 exibições
  9. Victor e Leo- Manteve-se 10.434 exibições
  10. Aline Barros- Manteve-se 10.076 exibições
Exibir acordes »

Cifras e tabs

Fórum Cifra Club

Aprenda

Cifra Club News

Mais Serviços Cifra Club ID

Studio Sol

©1996 - 2014 Cifra Club · o primeiro, maior e mais acessado do Brasil · 329 mil músicas · 5.9 milhões pessoas cadastradas

publicidade
fechar