Fernandinho

Eu Fui Comprado

19.903 exibições
Parte 1:
G|-------------------------| 
D|-------------------------| 
A|--4-6--4-6-4-6-4---------| 
E|------------------6-4-6--|

Refrão - parte 2:
G|--------------------6------------------------| 
D|---6/8--6--8--6--8--6--8---6-----------------| 
A|---6/8--6--8--6--8-----8---6---7--6--4--8----| 
E|-------------------------------7--6--4--6----| 

G|----------------------------| 
D|-----8-6--------------------| 
A|-----------6-7-8------------| 
E|-6-6------------------------|

Comentários 0

0:00 / 0:00

Capítulos

    1 versão de violãodificuldadeexibiçõescontribuição e correção
    1 versão de guitarradificuldadeexibiçõescontribuição e correção
    1 versão de cavacodificuldadeexibiçõescontribuição e correção
    1 versão de tecladodificuldadeexibiçõescontribuição e correção
    2 versões de baixoexibiçõescontribuição e correção
    1 versão de Guitar Proformatodownloadscontribuição
    play/pausefechar subir/descer velocidade
    6ª corda E5ª corda A4ª corda D3ª corda G2ª corda B1ª corda E
      acordes
      publicidad
      fechar
      ok