Eu Fui Comprado

Fernandinho

 Fernandinho
(parte 1)
G|-------------------------| 
D|-------------------------| 
A|--4-6--4-6-4-6-4---------| 
E|------------------4-6----|

(refrão - parte 2)
G|--------------------6------------------------| 
D|---6/8--6--8--6--8--6--8---6-----------------| 
A|---6/8--6--8--6--8-----8---6---7--6--4--8----| 
E|-------------------------------7--6--4--6----| 

G|----------------------------| 
D|-----8-6--------------------| 
A|-----------6-7-8------------| 
E|-6-6------------------------|

Comentários 0

Composição: Sabe quem é o compositor? Envie pra gente. Contribuição: jonathan Pvai Correções: Braga »
  1. Domingo de Manhã - Marcos e Belutti Manteve-se 102.157 exibições
  2. Maus Bocados - Cristiano Araújo Manteve-se 44.224 exibições
  3. Logo Eu - Jorge e Mateus Manteve-se 44.058 exibições
  4. Não Vai Voltar - Onze:20 Manteve-se 42.446 exibições
  5. Recaídas - Henrique e Juliano Manteve-se 42.106 exibições
  6. Pra Você - Onze:20 Manteve-se 41.097 exibições
  7. Só Os Loucos Sabem - Charlie Brown Jr. Manteve-se 30.815 exibições
  8. Mulher - Projota Manteve-se 30.074 exibições
  9. Calma - Jorge e Mateus Manteve-se 28.240 exibições
  10. Pais e Filhos - Legião Urbana Manteve-se 27.530 exibições
  1. Jorge e Mateus- Manteve-se 290.851 exibições
  2. Legião Urbana- Manteve-se 211.696 exibições
  3. Charlie Brown Jr.- Manteve-se 148.345 exibições
  4. Marcos e Belutti- Manteve-se 126.151 exibições
  5. Fernandinho- Manteve-se 119.776 exibições
  6. Henrique e Juliano- Manteve-se 112.277 exibições
  7. Onze:20- Manteve-se 106.060 exibições
  8. Bruno e Marrone- Manteve-se 104.274 exibições
  9. Luan Santana- Manteve-se 93.355 exibições
  10. Thalles Roberto- Manteve-se 90.600 exibições

Cifras e tabs

Fórum Cifra Club

Aprenda

Cifra Club News

Mais Serviços Cifra Club ID

Studio Sol

©1996 - 2014 Cifra Club · o primeiro, maior e mais acessado do Brasil · 335 mil músicas · 6.2 milhões pessoas cadastradas

publicidade
fechar