Eu Fui Comprado

Fernandinho

 Fernandinho
S= slide  
h= hammer-on   

(intro)
   
(primeira parte a guitarra faz sozinha com a batera)

(baixo enta na 2ºparte)
G|------------------------------------|  
D|------------------------------------|  (3x)
A|---------4h-6-4h-6-4h-6-4-----------|  
E|-------------------------6-4h-6-----|  

Eu fui comprado... (guitarra e bateria)  

..o meu passado foi pago la na cruz...  

(riff)
G|--------------------------------------------------------------|  
D|---------6s-20-20---------------------------------------------|  
A|------------------18-18-16-16---------------------------------|  
E|------------------------------18-18-16-16--14-14-11-11-9-9-6-6|  

(2º riff) 

(pós-refrão)
G|--------------------------------------------------------|  
D|--------------------------------------------------------|  
A|-----------------------4-----7s-6-4---------------------|  
E|-------------6-4-6-4-6---6-4-------4--------------------|  

Eu fui comprado...  

depois da parte do "...foi pago la na cruz" tem um riff rapido

G|--------------------------------------------------------|  
D|----------13s-11----------11----------------------------|  
A|----------------13-11-------13~ ------------------------|  
E|----------------------13--------------------------------|  

"Todo mundo pulando, pulando, pulando..."  

(repete o 2º riff)

(Rap) 
G|-----------------------------------------|  
D|--------------8-8--6-6-------------------|  
A|----------------------X-6-7-8------------|  
E|----------6-6----------------------------|  

(parte que ele Fala "OUÇA")

G|------------------17---------------|  
D|------------------16---------------|  
A|-----------------------------------|  
E|-----------------------------------|  

(repete o 2º riff)

Comentários 3

  • vitorbryant vitorbryant: Postado em 20/05/2013 15:15

    muito boa a tablatura

  • g.r.liomar g.r.liomar: Postado em 11/09/2012 22:25

    no proprio ensaiou levantou a galera.. o q dirah no show do fernandinho

  • osvaldinho osvaldinho: Postado em 23/08/2011 15:22

    mt maneiro..

Composição: Sabe quem é o compositor? Envie pra gente. Contribuição: gto
publicidade
fechar