Eu Vou Subir a Montanha

Fernandinho

 Fernandinho Compositor: Fernandinho
Tom: C#
		
Intro :  Bb5  C#5  Bb5  E5 Bb5  C#5  Bb5  E5 Bb5

     ↓ ↓ ↓ ↑ ↓ ↓ ↓ ↓ ↑ ↓ ↓ ↓ ↓ ↑ ↓ ↓ ↓ ↓ ↑ ↓

B|-----------------------------------------------|
E|-----------------------------------------------|
G|---8-8-8-x-6-6-6-6-x-x-8-8-8-x-9-9-9-9-x-x-----|
D|---8-8-8-x-6-6-6-6-x-x-8-8-8-x-9-9-9-9-x-x-----| (2X)
A|---6-6-6-x-4-4-4-4-x-x-6-6-6-x-7-7-7-9-x-x-----|
E|-----------------------------------------------|

B|-----------------------------------------------|
E|-----------------------------------------------|
G|---8-------------------------------------------|
D|---8-------------------------------------------| (1X)
A|---6-------------------------------------------|
E|-----------------------------------------------|


      G#5     F#5     Bb5
Eu já vi a sarça ardente
      G#5     F#5     Bb5
Eu já vi o mar se abrir
      G#5    F#5
Eu já vi os cavaleiros
       G#5       Bb5
De Faraó se afogarem

       G#5         Bb5
Eu já vejo os relâmpagos
      G#5         Bb5
A trombeta a me chamar
   G#5          F#5
É a voz do Meu amado
       G#5       F#5   G#5       F#5
Me chamando pra subir subir subir
    G#5
Eu vou...

          Bb5           C#5      G#5
Vou me perder em meio à nuvem de glória
        Bb5         C#5    Eb5
Me encontrar diante de tua face...ê
      Bb5           C#5      G#5
Me perder em meio à nuvem de glória
        Bb5         C#5    Bb5    Eb5
Me encontrar diante de tua face...ê

Refrão:

         Bb5    C#5    Eb9               Bb5    C#5    Eb9
Eu........vou...ooo...oou   vou subir a montanha...aaaaaaaaaaaaaaaa...

        Bb5    C#5    Eb9               Bb5    C#5    Eb9
Eu........vou...ooo...oou   vou subir a montanha...aaaaaaaaaaaaaaaa...



Intro :  Bb5  C#5  Bb5  E5  Bb5  C#5  Bb5  E5  Bb5


     ↓ ↓ ↓ ↑ ↓ ↓ ↓ ↓ ↑ ↓ ↓ ↓ ↓ ↑ ↓ ↓ ↓ ↓ ↑ ↓

B|-----------------------------------------------|
E|-----------------------------------------------|
G|---8-8-8-x-6-6-6-6-x-x-8-8-8-x-9-9-9-9-x-x-----|
D|---8-8-8-x-6-6-6-6-x-x-8-8-8-x-9-9-9-9-x-x-----| (2X)
A|---6-6-6-x-4-4-4-4-x-x-6-6-6-x-7-7-7-9-x-x-----|
E|-----------------------------------------------|

B|-----------------------------------------------|
E|-----------------------------------------------|
G|---8-------------------------------------------|
D|---8-------------------------------------------| (1X)
A|---6-------------------------------------------|
E|-----------------------------------------------|



      G#5    F#5     Bb5
Eu já vi a sarça ardente
      G#5    F#5     Bb5
Eu já vi o mar se abrir
      G#5    F#5
Eu já vi os cavaleiros
       G#5       Bb5
De Faraó se afogarem

       G#5    F#5     Bb5
Eu já vejo os relâmpagos
      G#5    F#5     Bb5
A trombeta a me chamar
   G#5          F#5
É a voz do Meu amado
       G#5       F#5   G#5       F#5
Me chamando pra subir subir subir
    G#5
Eu vou...

          Bb5           C#5      G#5
Vou me perder em meio à nuvem de glória
        Bb5         C#5    Eb5
Me encontrar diante de tua face...ê
      Bb5           C#5      G#5
Me perder em meio à nuvem de glória
        Bb5         C#5    Bb5    Eb5
Me encontrar diante de tua face...ê

Refrão:

         Bb5    C#5    Eb9               Bb5    C#5    Eb9
Eu........vou...ooo...oou   vou subir a montanha...aaaaaaaaaaaaaaaa...
        Bb5    C#5    Eb9               Bb5    C#5    Eb9
Eu........vou...ooo...oou   vou subir a montanha...aaaaaaaaaaaaaaaa... Bb5

Enquanto Fernandinho fica falando a guitarra segura no Bb5

dai vem o solo :

Refrão 2x:


         Bb5    C#5    Eb9               Bb5    C#5    Eb9
Eu........vou...ooo...oou   vou subir a montanha...aaaaaaaaaaaaaaaa...
        Bb5    C#5    Eb9               Bb5    C#5    Eb9
Eu........vou...ooo...oou   vou subir a montanha...aaaaaaaaaaaaaaaa... Bb5



     ↓ ↓ ↓ ↑ ↓ ↓ ↓ ↓ ↑ ↓ ↓ ↓ ↓ ↑ ↓ ↓ ↓ ↓ ↑ ↓

B|-----------------------------------------------|
E|-----------------------------------------------|
G|---8-8-8-x-6-6-6-6-x-x-8-8-8-x-9-9-9-9-x-x-----|
D|---8-8-8-x-6-6-6-6-x-x-8-8-8-x-9-9-9-9-x-x-----| (2X)
A|---6-6-6-x-4-4-4-4-x-x-6-6-6-x-7-7-7-9-x-x-----|
E|-----------------------------------------------|

B|-----------------------------------------------|
E|-----------------------------------------------|
G|---8-------------------------------------------|
D|---8-------------------------------------------| (1X)
A|---6-------------------------------------------|
E|-----------------------------------------------|
Texto Colunas
Alterar tom ½ tom ½ tom
afinação acordes na letra esconder tabs mais »

Comentários (33)

  • andreyzito andreyzito: Postado em 13/12/2013 13:46

    Depois da introdução fica melhor assim:
    Bb5 G#5 F#5
    Bb5 G#5 F#5
    G#5 F#5
    G#5 F#5
    Minha versão é assim toquem qual achar melhor ;)

  • NeNe NeNe: Postado em 20/08/2013 22:42

    ESSA MUSICA TA ERRADA DE MAIS DEPOIS EU VOU CORRIGIR ELA, TO CANSADO TAVA CORRIGINDO A DO OFICINA G3 - AOS PES DA CRUZ ESSA MUSICA É G#,F#,B

  • mick91 mick91: Postado em 06/06/2013 01:24

    ?

  • mick91 mick91: Postado em 06/06/2013 01:24

    onde entra o riff2

  • Marcos Marcos: Postado em 12/05/2013 16:54

    essa ciffra ta idre super errada

  • murilolira murilolira: Postado em 14/02/2013 15:55

    e depois dele contar a historia . quais as notas ? n achei ... :/

  • ceng ceng: Postado em 23/11/2012 22:45

    rock pra jesus

  • mc_ts mc_ts: Postado em 19/11/2012 16:13

    massa!

  • murilolira murilolira: Postado em 17/10/2012 12:54

    Musica Fácil . nem precisa de video-aula . Abaixa 1/2 tom que da certo . Ritmo fácil também .

  • vanderli.555 vanderli.555: Postado em 24/09/2012 11:26

    queria sabe mais ou menos o ritmo da musica
    axo tem q divide o ritmo dele em 2 notas

Exibindo 10 de 33 comentários Mostrar mais ver todos »
Composição: Sabe quem é o compositor? Envie pra gente. Contribuição: Zeu Correções: rodrigo , gabrielcolorado e mais 27 »
  1. Tudo Que Você Quiser - Luan Santana Manteve-se 6.037 exibições
  2. Lepo Lepo - Psirico Manteve-se 4.468 exibições
  3. Mozão - Lucas Lucco Manteve-se 4.227 exibições
  4. Logo Eu - Jorge e Mateus Manteve-se 3.853 exibições
  5. Gaveta - Fernando e Sorocaba Manteve-se 3.342 exibições
  6. Pra Você - Onze:20 Manteve-se 3.171 exibições
  7. Só Os Loucos Sabem - Charlie Brown Jr. Manteve-se 3.013 exibições
  8. Tempo Perdido - Legião Urbana Manteve-se 2.451 exibições
  9. Fui Fiel - Gusttavo Lima Manteve-se 2.434 exibições
  10. Na Linha do Tempo - Victor e Leo Manteve-se 2.183 exibições
  1. Jorge e Mateus- Manteve-se 22.974 exibições
  2. Legião Urbana- Manteve-se 20.295 exibições
  3. Luan Santana- Manteve-se 17.553 exibições
  4. Charlie Brown Jr.- Manteve-se 17.249 exibições
  5. Fernandinho- Manteve-se 14.873 exibições
  6. Thalles Roberto- Manteve-se 11.307 exibições
  7. Católicas- Manteve-se 10.786 exibições
  8. Victor e Leo- Manteve-se 10.519 exibições
  9. Gusttavo Lima- Manteve-se 10.295 exibições
  10. Aline Barros- Manteve-se 10.226 exibições
Exibir acordes »

Cifras e tabs

Fórum Cifra Club

Aprenda

Cifra Club News

Mais Serviços Cifra Club ID

Studio Sol

©1996 - 2014 Cifra Club · o primeiro, maior e mais acessado do Brasil · 329 mil músicas · 5.9 milhões pessoas cadastradas

publicidade
fechar