Fome de Ti

Fernandinho

 Fernandinho Compositor: Fernandinho
Tom: G
		
(intro 2x)  C D G/B C C9 D C D/F#


E|---10-10------------10-10---------10-10---------------7----------
B|-8-------8-8/10---8-------8-----8-------8-8/10---8-10---8-8/10---
G|----------------------------9------------------------------------
D|-----------------------------------------------------------------
A|-----------------------------------------------------------------
E|-----------------------------------------------------------------


G                       D/F#     Em
 Por um momento em tua presença (aa)
                      C
Por um estante do teu amor...
G                        D/F# Em
 Por ver a luz da tua glória (aa)
                    C
Por um minuto nada mais...

          G               D/F#
Tudo eu daria, não importaria.
       Am
O que tenho que passar
       D              C
O que tenha que esperar

D            G
Tenho fome de ti
          D/F#                Em              C
Da tua presença, da tua fragrância, do teu poder.
 D       G
Fome de ti
         D/F#            Em      C
Que desespera por tua gloria senhor.
  D            G
Tenho fome de ti
          D/F#                Em              C
Da tua presença, da tua fragrância, do teu poder.
 D      G
Fome de ti
       D/F#              Em      C
Que desespera por tua gloria senhor.


E|-------10-10---------------7----------
B|-----8-------8-8/10---8-10---8-8/10---
G|--------------------------------------
D|--------------------------------------
A|--------------------------------------
E|--------------------------------------


G                       D/F#     Em
 Por um momento em tua presença (aa)
                       C
Por um estante do teu amor...
G                        D/F# Em
 Por ver a luz da tua glória (aa)
                    C
Por um minuto nada mais...

          G               D/F#
Tudo eu daria, não importaria.
       Am
O que tenho que passar
       D              C
O que tenha que esperar

D            G
Tenho fome de ti
          D/F#                Em              C
Da tua presença, da tua fragrância, do teu poder.
 D       G
Fome de ti
         D/F#            Em      C
Que desespera por tua gloria senhor.
  D            G
Tenho fome de ti
          D/F#                Em              C
Da tua presença, da tua fragrância, do teu poder.
 D      G
Fome de ti
       D/F#              Em      C
Que desespera por tua gloria senhor.

(ministração) G D/F# Em C

(final)

E|---10-10------------10-10---------10-10---------------7----------|
B|-8-------8-8/10---8-------8-----8-------8-8/10---8-10---8-8/10---|
G|----------------------------9------------------------------------|
D|-----------------------------------------------------------------|
A|-----------------------------------------------------------------|
E|-----------------------------------------------------------------|
66.896 exibições

Comentários 0

Composição: Sabe quem é o compositor? Envie pra gente. Contribuição: TROYANO Correções: tecotel e mais 2 »
Exibir acordes »
publicidade
fechar