Geração de Samuel

Fernandinho

 Fernandinho
Tom: E
		
(intro) E  A9

          h.a h.a   h.a  h.a

E|-----|-0--|-12------|-12---19--|
B|-----|---0|-----12--|----------|
G|-----|----|---------|----------|
D|-----|----|---------|----------|
A|--2-~|----|---------|----------|
E|--0-~|----|---------|----------|



E|-----------------------|---------------------|-12-11h12p11--------|
B|--5-7/9~-10-9-7h9p7-5~-|-5-7/9~-10-9-7-5~/12~|------------12-12~--|
G|-4-4-------------------|4-4------------------|--------------------|
D|-----------------------|---------------------|--------------------|
A|-----------------------|---------------------|--------------------|
E|-----------------------|---------------------|--------------------|



E|-14/12/11-12-14-14------|-------------------------------|----------------|
B|------------------12-12-|-5-5-5-5h7-5~----5-------------|-10-9-7h9p7-5-5~|
G|------------------------|--------------4-8-4/6~/11~-9-9~|----------------|
D|------------------------|-------------------------------|----------------|
A|------------------------|-------------------------------|----------------|
E|------------------------|-------------------------------|----------------|


  Eu Faço Parte...

E|---------------------|
B|--5-7/9~~------------|
G|-4-4-----------------|
D|---------------------|
A|---------------------|
E|---------------------|


         E                  A9
Eu faço parte de um novo tempo
              E                     A9
Que está nascendo em minha nação
           C#m             A
Eu sou o fruto de uma semente
                  B9                      A9
Que foi plantada há muito tempo atrás

            E    A9   E   A9
Por meus irmãos

    E           A9                 E
A geração de Samuel está se levantando
             A9
Em todo o lugar

  B9                 A9
Geração que depõe Saul
  B9                A9
Geração que unge Davi
                     E
Para um tempo de louvor
Texto Colunas
Alterar tom ½ tom ½ tom
afinação acordes na letra esconder tabs mais »

Comentários (7)

  • Lucas Lucas: Postado em 23/11/2013 12:32

    Facil demais, e pra que já sabe um pouco, pode ir variando de Tonalidade e mudando os acordes. #FikaDica

  • mcts mcts: Postado em 21/09/2012 16:33

    hummm.... um louvor desse pra ser ministrado num culto infantil hem!!

  • wilmersomgsx15 wilmersomgsx15: Postado em 23/04/2012 20:51

    ôh gloriaaa *-*

  • marydolitle marydolitle: Postado em 13/04/2012 14:39

    dahora!!!

  • s2_teffa12 s2_teffa12: Postado em 14/11/2011 16:08

    eu amo essa musica e tipo demais

  • rosinhaflora rosinhaflora: Postado em 24/09/2011 17:28

    também consegui lindo demais Gloria a Deus *.*

  • nana6853 nana6853: Postado em 22/07/2011 13:21

    ai de mais mesmo eu consegui tocar

Composição: Fernandinho
Esse não é o compositor? Avise-nos.
Contribuição: japinha Correções: Dudu , dedinho e mais 4 »
  1. Tudo Que Você Quiser - Luan Santana Manteve-se 6.037 exibições
  2. Lepo Lepo - Psirico Manteve-se 4.468 exibições
  3. Mozão - Lucas Lucco Manteve-se 4.227 exibições
  4. Logo Eu - Jorge e Mateus Manteve-se 3.853 exibições
  5. Gaveta - Fernando e Sorocaba Manteve-se 3.342 exibições
  6. Pra Você - Onze:20 Manteve-se 3.171 exibições
  7. Só Os Loucos Sabem - Charlie Brown Jr. Manteve-se 3.013 exibições
  8. Tempo Perdido - Legião Urbana Manteve-se 2.451 exibições
  9. Fui Fiel - Gusttavo Lima Manteve-se 2.434 exibições
  10. Na Linha do Tempo - Victor e Leo Manteve-se 2.183 exibições
  1. Jorge e Mateus- Manteve-se 22.974 exibições
  2. Legião Urbana- Manteve-se 20.295 exibições
  3. Luan Santana- Manteve-se 17.553 exibições
  4. Charlie Brown Jr.- Manteve-se 17.249 exibições
  5. Fernandinho- Manteve-se 14.873 exibições
  6. Thalles Roberto- Manteve-se 11.307 exibições
  7. Católicas- Manteve-se 10.786 exibições
  8. Victor e Leo- Manteve-se 10.519 exibições
  9. Gusttavo Lima- Manteve-se 10.295 exibições
  10. Aline Barros- Manteve-se 10.226 exibições
Exibir acordes »

Cifras e tabs

Fórum Cifra Club

Aprenda

Cifra Club News

Mais Serviços Cifra Club ID

Studio Sol

©1996 - 2014 Cifra Club · o primeiro, maior e mais acessado do Brasil · 329 mil músicas · 5.9 milhões pessoas cadastradas

publicidade
fechar